Song name
# A B C D E F G H I J K L M N O P Q R S T U V W X Y Z

Zebrahead - With Legs Like That tab

Help us improve GuitareTab! Take a short survey!
This is my first tab, so go easy on me.
This is the WWE Diva Maria's entrance theme, and also a really cool song so I was really
to find that nobody had tabbed it.
Tuning: Standard
.. - Palm Mute

Intro
e--------------------------|
B--------------------------|
G-88888888-----------------|
D-88888888--6666--8888-----| x2
A-66666666--6666--8888-----|
E-----------4444--6666-----|
  ........  ....  ....

Verse
"Here she comes again..."
e----------------------------|
B----------------------------|
G--88888888------------------|
D--88888888--6666--8888------| x2
A--66666666--6666--8888------|
E------------4444--6666------|
   ........  ....  ....

"Her legs go on and on for days..."
e-------------------------------------------------|
B-------------------------------------------------|
G--88888888---------------------------------------|
D--88888888--1010101010101010--88888888--66--88---|
A--66666666--1010101010101010--88888888--66--88---|
E------------8-8-8-8-8-8-8-8---66666666--44--66---|
   ........  ................  ........

"She's got a hold on me..."
e----------------------------|
B----------------------------|
G--88888888------------------|
D--88888888--6666--8888------| x2
A--66666666--6666--8888------|
E------------4444--6666------|

e-------------------------------------------------|
B-------------------------------------------------|
G--88888888---------------------------------------|
D--88888888--1010101010101010--88888888--66--88---|
A--66666666--1010101010101010--88888888--66--88---|
E------------8-8-8-8-8-8-8-8---66666666--44--66---|

Chorus
"She's at the top of her game..."
e------------------- ------------------------------------------|
B------------------- ------------------------------------------|
G------------------- ------------------------------------------|
D--1010101010101010- -66666666-- x2 2nd time: D-6666--8888-----|
A--1010101010101010- -66666666--              A-6666--8888-----|
E--8-8-8-8-8-8-8-8-- -44444444--              E-4444--6666-----|

"Look out! She'll tear your heart out..."
e------------------|
B------------------|
G--88--88----------|
D--88--88--66--8---| x2
A--66--66--66--8---|
E----------44--6---|

"She comes and goes..."
e------------------- ------------------------------------------|
B------------------- ------------------------------------------|
G------------------- ------------------------------------------|
D--1010101010101010- -66666666-- x3 3rd time: D-6666--8888-----|
A--1010101010101010- -66666666--              A-6666--8888-----|
E--8-8-8-8-8-8-8-8-- -44444444--              E-4444--6666-----|

Structure of the song is:
Intro
Verse
Chorus
Intro
Verse
Chorus
Bridge (same chord sequence as chorus)
Chorus (from "Look out!")
Outro (same chord sequence as intro and verse x10)

End with
e---------------------|
B---------------------|
G--8---------------8--|
D--8--10--8--6--8--8--|
A--6--10--8--6--8--6--|
E-----8---6--4--6-----|

Please rate, if you have any comments or corrections to make, email them to me at
freakylikecheese@hotmail.com.
Related for With Legs Like That tab