Song name
# A B C D E F G H I J K L M N O P Q R S T U V W X Y Z

Zed - Renegade Fighter tab

Artist - Zed
Album  - Silencer
Title  - Renegade Fighter

Standard Tuning (EADGBe)

E|-0-0-7-10-8-5---7---7---7---0-0-7-10-8-5----0----2-|
B|------------------8---7---------------------1----3-|
G|--------------------------------------------0----2-|
D|--------------------------------------------2----x-|
A|--------------------------------------------3----x-|
E|--------------------------------------------3----x-|

Chords:

Strum Pattern - ↓ ↓↑↓↑↓ ↓ ↓↑
Chords: Half Bars (Except For C and D which are quarter bars).
 ↓ ↓↑↓↑↓ ↓ ↓↑  ↓ ↓↑↓↑↓ ↓ ↓↑
   E      E7	               Am      C	      D
e|-0------0-------------------0-------0-------2-------|
B|-0------0-------------------1-------1-------3-------|
G|-1------1-------------------2-------0-------2-------|
D|-2------0-------------------2-------2-------0-------|
A|-2------2-------------------0-------3-------x-------|
E|-0------0-------------------x-------x-------x-------|

Tab by Adz Sweety
Tap to rate this tab
# A B C D E F G H I J K L M N O P Q R S T U V W X Y Z