Song name
# A B C D E F G H I J K L M N O P Q R S T U V W X Y Z

Zed - She Glows tab

Tab: By David Sims
simzy2003@hotmail.com
Christchurch, New Zealand

Hey guys and girls. I have looked everywhere for this tab but to no avail. Here's my own 
of bits and pieces. Sorry, I don't know the song well enough to do the pretty little 
bit or the lyrics. Have fun, make changes!

SHE GLOWS - ZED (Go Kiwi!) WARNING: SOME DISTORTION REQUIRED!

Rhythm Guitar: (Nathan)

Intro - Kinda muted, Open it up for Chorus

       A5                 D5             C#5              B5                 E5        D5

E---------------------------------------------------------------------------|
B---------------------------------------------------------------------------|
G----------------------------------------------9-9-9-9-9-9-s-7--------------|
D---7-7-7-7--7--12-12--12--11-11--11--9-9-9-9--9-9-9-9-9-9-s-7--------------|
A---7-7-7-7--7--12-12--12--11-11--11--9-9-9-9--7-7-7-7-7-7-s-5--------------|
E---5-5-5-5--5--10-10--10---9--9---9--7-7-7-7-------------------------------|

Lead Guitar: (Andy)

E---------------------------------------------------------------------|
B---------------------------------------------------------------------|
G---13-s-14-s-16---13-s-14--------------------------------------------|
D---x-----x-----x-----x-----x-----------------------------------------|
A---11-s-13-s-14---11-s-13--------------------------------------------|
E---------------------------------------------------------------------|

If anyone can figure out the twinkly breakdown bit or correctly tab the bridge (Don't 
embarrass myself anymore!) please e-mail me @ simzy2003@hotmail.com!

This is a great rock song that isn't too pop, so listen and you'll get it. Sounds pretty primo!

SILVERCHAIR FOREVER - Look out for more tabs from SIMZY of NZ soon!
Tap to rate this tab
# A B C D E F G H I J K L M N O P Q R S T U V W X Y Z