Song name
# A B C D E F G H I J K L M N O P Q R S T U V W X Y Z

Zedd - Clarity tab

(I did not create the tab. I just edited it because the original was tabbed
wrong)
Capo 1st fret

E|---3p2-------3p2-------3p2-------3p2-------3p2-------3p2-----|
B|-3-----3---3-----3---3-----3---3-----3---3-----3---3-----3---|
G|---------0---------0---------0---------0---------0---------0-|
D|-------------------------------------------------------------|
A|-------------------------------------------------------------|
E|-------------------------------------------------------------|

E|---3p2-----------3------------------------------------------|
B|-3-----3-------3-------3------------------------------------|
G|---------0---0-------0--------------------------------------|
D|-------------------------0----------------------------------|
A|-----------2-------3----------------------------------------|
E|------------------------------------------------------------|

    Part 1
E|-----------------0--------------------------------------------|
B|-----3---0h1-3-------3---0h1-3---1---0-----------1------------|
G|-----0---------0---0---0-------0---0---2-2-----------4--------|
D|---2---2-----0---------------------------------0---------0----|
A|-3-----------------------------------2---3--------------------|
E|-----------------------------0--------------------------------|

E|---------------------0-------------------------------------------------|
B|-----3---3---0h1-3-------3---0h1-3---1---0-----------------------------|
G|-----0-------------0---0---0-------0---0-----2-2p0---------------------|
D|---2---2---2-----0-----------------------------------------------------|
A|-0---------------------------------------2-----3-----------------------|
E|---------------------------------0-------------------------------------|

E|---------------------0-------------------------------------------------|
B|-----3---3---0h1-3-------3---0h1-3---1---0-------------1---------------|
G|-----0-------------0---0---0-------0---0-----2-2-----------4-----------|
D|---2---2---2-----0-----------------------------------0---------0-------|
A|-3---------------------------------------2-----3-----------------------|
E|---------------------------------0-------------------------------------|


E|---------------------0-------------------------------------------------|
B|-----3---3---0h1-3-------3---0h1-3---1---0-----------------------------|
G|-----0-------------0---0---0-------0---0-----2-2p0---------------------|
D|---2---2---2-----0-----------------------------------------------------|
A|-0---------------------------------------2-----3-----------------------|
E|---------------------------------0-------------------------------------|


Part 2

E|------3---3--------3---5---5-----------3---3-------0---3---7-8-7-------|
B|-----3----3---3.-3-3-----------3-------0---0---0-3---3-----------8-----|
G|----0---0---0--------2---2---2---0---0---0---0-------------------------|
D|-------------------0---------------------------------------------------|
A|---2-----------------------------------------------3-------------------|
E|-0---------------------------------3-----------------------8-----------|


E|-----3---3--------3---5---5-----------3---3-------0---3---7-8-7--------|
B|-----3-------3.-3-3-----------3-------0---0---0-3---3-----------8------|
G|---0---0---0--------2---2---2---0---0---0---0--------------------------|
D|------------------0----------------------------------------------------|
A|--------------------------------------------------3---3----------------|
E|-0--------------------------------3-----------------------8------------|


Part 3

E|-----3-/-10-----7--------5-----3---3-5-5---5---3---5---7---2-2-3-------|
B|-----3-/-8------8---8.---8-----3---3-3-3---3---3-------0---3-3-3-3p0---|
G|---0----------7---7----------0-----------0---0---0---0---0-------------|
D|---------0---------------0---------------------------------------------|
A|---------------------------------------------------3-------3---3-0-----|
E|-0-------------------------------0-3-----------------------------------|


E|-----3-/-10-----7--------5-----3---3-5-5---5---3---5---7---2-2-3-------|
B|-----3-/-8------8---8.---8-----3---3-3-3---3---3-------0---3-3-3-------|
G|---0----------7---7----------0-----------0---0---0---0---0-----0-------|
D|---------0---------------0-------------------------------------x-------|
A|---------------------------------------------------3-------3---3-------|
E|-0-------------------------------0-3-----------------------------------|


Part 4

E|---3-3-3-------3-3---3-------------------------------------------------|
B|---3-3-3-------3-3---3-------------------------------------------------|
G|---0-0-0-------0-0---0-------------------------------------------------|
D|---x-x-x-------x-x---x-------------------------------------------------|
A|---3-3-3-------3-3---3-------------------------------------------------|
E|-----------------------------------------------------------------------|


  Fm6           D#sus3            G#      G#/C  C#add8              4x
E|-3---3-3-3-3-3-3---3-3-3-3---3---3---3-3-3-3-3-3---3-3-3-3---3---------|
B|-3---3-3-3-3-3-3---3-3-3-3---3---3---3-3-3-3-3-3---3-3-3-3---3---------|
G|-0---0-0-0-0-0-2---2-2-2-2---2---0---0-0-0-0-0-0---0-0-0-0---0---------|
D|-2---2-2-2-2-2-0---0-0-0-0---0---0---0-0-x-x-x-2---2-2-2-2---2---------|
A|-2---2-2-2-2-2-------------------x---x-x-2-2-2-3---3-3-3-3---3---------|
E|-0---0-0-0-0-0-------------------3---3-3-------------------------------|


Part 5                                                              4x

E|-----3-3-10-10-10-7-7-7-x-5-5-0-3-x-3-5-5-5-5-5-3-3-3-3-5-5-2-2-3-3----|
B|-----3-3-8--8--8--8-8-8-x-8-8-0-3-x-3-3-3-3-3-3-3-3-0-0-0-0-3-3-3-3----|
G|-----0-0-7--7--7--7-7-7-x-7-7-0-0-x-0-0-0-0-0-0-0-0-0-0-0-0-0-0-0-0----|
D|-2---2-2-0--0--0--0-0-0-x-0-0-0-0-x-0-0-0-0-0-0-0-0-x-x-x-x-x-x-x-x----|
A|-2---2-2-0--0--0------------------x-x-x-x-x-x-x-x-x-3-3-3-3-3-3-3-3----|
E|-0---0-0----------------------------3-3-3-3-3-3-3-3--------------------|


Part 6 ~ Intro

E|---3p2-------3p2-------3p2-------3p2-----------------------------------|
B|-3-----3---3-----3---3-----3---3-----3---------------------------------|
G|---------0---------0---------0---------0-------------------------------|
D|-----------------------------------------------------------------------|
A|-----------------------------------------------------------------------|
E|-----------------------------------------------------------------------|


Part 7 ~ Part 1

E|---------------------0-------------------------------------------------|
B|-----3---3---0h1-3-------3---0h1-3---1---0-------------1---------------|
G|-----0-------------0---0---0-------0---0-----2-2-----------4-----------|
D|---2---2---2-----0-----------------------------------0---------0-------|
A|-3---------------------------------------2-----3-----------------------|
E|---------------------------------0-------------------------------------|


E|---------------------0-------------------------------------------------|
B|-----3---3---0h1-3-------3---0h1-3---1---0-----------------------------|
G|-----0-------------0---0---0-------0---0-----2-2p0-----0---0---0-------|
D|---2---2---2-----0-----------------------------------------------------|
A|-0---------------------------------------2-----3-----3---3---3---------|
E|---------------------------------0-------------------------------------|


E|---------------------0-------------------------------------------------|
B|-----3---3---0h1-3-------3---0h1-3---1---0-------------1---------------|
G|-----0-------------0---0---0-------0---0-----2-2-----------4-----------|
D|---2---2---2-----0-----------------------------------0---------0-------|
A|-3---------------------------------------2-----3-----------------------|
E|---------------------------------0-------------------------------------|


E|---------------------0-------------------------------------------------|
B|-----3---3---0h1-3-------3---0h1-3---1---0-----------------------------|
G|-----0-------------0---0---0-------0---0-----2-2p0-----0---0---0-------|
D|---2---2---2-----0-----------------------------------------------------|
A|-0---------------------------------------2-----3-----3---3---3---------|
E|---------------------------------0-------------------------------------|



repeat Part 2 3 4 5


End

E|---3p2-------3p2-----5---3---5---7---2---3~----------------------------|
B|-3-----3---3-----3-----0---0---0---0---0-------------------------------|
G|---------0---------0---------------------------------------------------|
D|-----------------------------------------------------------------------|
A|-----------------------------------------------------------------------|

Revised by bmxandy1994
Tap to rate this tab
# A B C D E F G H I J K L M N O P Q R S T U V W X Y Z