Song name
# A B C D E F G H I J K L M N O P Q R S T U V W X Y Z

Zedd - Stay The Night tab

-------------------------------------------------------------------------------
                             STAY THE NIGHT- ZEDD (FT. HALEY WILLIAMS)
-------------------------------------------------------------------------------
Tabbed by: Jessinia Ahrens
( jessiniarenee )

Tuning:Standard

 I know that we are upside down

e|-8-------------------------------|
B|----11--9--8---------------------|
G|--------------10--8--10--8-------|
D|---------------------------------|
A|---------------------------------|
E|---------------------------------|

So hold your tongue and hear me out
e|------------------------------------|
B|-----------------9------------------|
G|--8--10--8--8-------10---8--8-------|
D|------------------------------------|
A|------------------------------------|
E|------------------------------------|

I Know that we were made to break so what i don't mind
e|--8-------------------------------- --8---6----------------------|
B|-----11--9--8------------------------9---8-----------------------|
G|----------------10---8--10--8---8-----------10-------------------|
D|-------------------------------------------------8p10------------|
A|--------------------------------------------------------11-------|
E|-----------------------------------------------------------------|

You kill the lights, ill draw the blinds
e|-8-------------------------------|
B|----11--9--8---------------------|
G|--------------10--8--10--8-------|
D|---------------------------------|
A|---------------------------------|
E|---------------------------------|

Dont dull the sparkle in your eyes
e|--------------------------8--8------|
B|-----------------9--11--------------|
G|--8--10--8--8-----------------------|
D|------------------------------------|
A|------------------------------------|
E|------------------------------------|

I Know that we were made to break so what i don't mind
e|--8-------------------------------- --8---6----------------------|
B|-----11--9--8------------------------9---8-----------------------|
G|----------------10---8--10--8---8-----------10-------------------|
D|-------------------------------------------------8p10------------|
A|--------------------------------------------------------11-------|
E|-----------------------------------------------------------------|

Are you gonna stay the night ? Are you gonna stay the night ?
e|------------------------------------------------------------------------------|
B|-------------------------------------------8--9--9----------------------------|
G|---------8--8--------------8--8---10--10--------------------------------------|
D|--6--6---------8---10--10-----------------------------------------------------|
A|------------------------------------------------------------------------------|
E|------------------------------------------------------------------------------|

So-oo-oo-oo, Are you gonna stay the night ?
e|-8---------------------------------------------------------|
B|----11--9--8-----------------9-----------------------------|
G|--------------10--8--10--8-----10--8--8--------------------|
D|------------------------------------------8p10---6--6------|
A|-----------------------------------------------------------|
E|-----------------------------------------------------------|


************************************

| /   slide up
| \   slide down
| h   hammer-on
| p   pull-off
| ~   vibrato
| +   harmonic
| x   Mute note
| b   Bend
| pb  Pre-bend
| br  Bend release
| pbr Pre-bend release
| brb Bend release bend

************************************
Tap to rate this tab
# A B C D E F G H I J K L M N O P Q R S T U V W X Y Z