Song name
# A B C D E F G H I J K L M N O P Q R S T U V W X Y Z

Zee Avi - First Of The Gang tab

------------------------------------------------------------
	"First of the Gang" - Zee Avi (Morrissey)
------------------------------------------------------------
Tabbed by: Justin Riray
Youtube:   http://www.youtube.com/JustinRiray
Myspace:   http://www.myspace.com/riray
Facebook:  http://www.facebook.com/riray

Tuning: CAPO 5th fret (EADGBe)

     Basic strumming pattern for INTRO 
 The entire song is the same basic pattern, different chords
e|-------3-----------3-----------2----------2-----1--------|
B|------3--3-3------3--3-3------3--3-3-----3-----2---------|
G|-----0----0------0----0------4----4-----4-----3----------|
D|----0-----------0-----------4----------4-----3-----------|
A|---2-----------2----------2----------2------1------------|
E|-3-----------3-------------------------------------------|

e|-------0----------0---------2-2---------2-2--------------|
B|------1--1-1-----1--1-1----3----3-3----3----3-3----------|
G|-----2----2-----2----2----2------2----2------2-----------|
D|----2----------2--------0-----------0--------------------|
A|--0----------0-------------------------------------------|
E|---------------------------------------------------------|


     INTRO
      G   Bm   Am   D


      G                        Em
	You have never been in love
                              Bm
	until you've seen the stars
                        D
	reflect in the reservoirs
      G                            Em
	and you have never been in love
                              Bm
	until you've seen the dawn rise
               D
	behind the Home For The Blind

BRIDGE
                   Am           Em     Bm-Bbm-Am
	we are the Pretty Petty Thieves
    Am                             Em
	and you're standing on our streets

CHORUS (x2)
               D             G
	where Hector was the first of the gang with a gun in his hand
                Bm                                 Bbm     Am       D
	and the first to do time, the first of the gang to die - oh my 
                                 

CHORUS (x2)

      	You have never been in love
       	until you've seen sunlight thrown
        over smashed human bone
BRIDGE
        We are the Pretty Petty Thieves
 	and you're standing on our streets

CHORUS
              D              G   
	where Hector was the first of the gang with a gun in his hand
                 Bm                               Bbm      Am         D
        and the first to do time the first of the gang to die such a silly boy
                        G         
	Hector was the first of the gang with a gun in his hand
               Bm                          Bbm        Am                D
  	and a bullet in his gullet and the first Lost Lad to go under the sod


BREAK   F  Am  Bb  C   Bb

CHORUS
                               G           
	And he stole from the rich and the poor and the not-very-rich
                Bm                               Am
	and the very poor and he stole all hearts away
                           D                     G
        Stole all hearts away, stole all hearts away ahay ahay ahay
         Bm                         Am       D
        Away-ahay stole all hearts away ... away  
Tap to rate this tab
 
# A B C D E F G H I J K L M N O P Q R S T U V W X Y Z