Song name
# A B C D E F G H I J K L M N O P Q R S T U V W X Y Z

Zee Avi - Kantoi tab

Assalamualaikum…

Artist	: Zee Avi
Song	: Kantoi
Tuning	: Standard

Listen to the song for the strumming pattern…

Intro
e|--8-----9---8-|-----------|
B|--8-----9--10-|-12--------|
G|--9----10--10-|-12--------|
D|-10----11--10-|-12--------|
A|-10----11---8-|-10--------|
E|--8-----9-----|-----------|

Verse X3 kot…
“Semalam…         “U kata…         “U ka-
e|--8----|-------|-------|--8----|
B|--8----|-12----|-12----|--8----|
G|--9----|-12----|-10----|--9----|
D|-10----|-12----|-12----|-10----|
A|-10----|-10----|-10----|-10----|
E|--8----|-------|-------|--8----|

                             Bar nie not 100% sure
“-ta u keluar…   “kawan u…    “…call tommy…
e|--8----------|--8----5----|--8---9---8------|
B|--8----11----|-10----7----|--8---9--10--12--|
G|--9-----9----|-10----5----|--9--10--10--12--|
D|-10-----8----|-10----7----|-10--11--10--12--|
A|-10----10----|--8----5----|-10--11---8--10--|
E|--8-----8----|------------|--8---9----------|

  “…true…”
e|--8----|
B|--8----|
G|--9----|
D|-10----|
A|-10----|
E|--8----|

Chorus ke?
“Sudahlah…            “don’t believe u”
e|----8--------|--8----|
B|---10----12--|--8----|
G|---10----12--|--9----|
D|---10----12--|-10----|    X3
A|----8----10--|-10----|
E|-------------|--8----|

“No wonder la…    “…you…”
e|--8-----9---8-|-----------|
B|--8-----9--10-|-12--------|
G|--9----10--10-|-12--------|
D|-10----11--10-|-12--------|
A|-10----11---8-|-10--------|
E|--8-----9-----|-----------|

Last Verse
“So I guess…”     “…kata…”         “tapi…
e|--8----|-------|-------|--8----|
B|--8----|-12----|-12----|--8----|
G|--9----|-12----|-10----|--9----|
D|-10----|-12----|-12----|-10----|
A|-10----|-10----|-10----|-10----|
E|--8----|-------|-------|--8----|

“…last2” “dpt tau””She was…”     **            “Tom--
e|--8----------|--8----5----|----------8------|
B|--8----11----|-10----7----|---------10--12--|
G|--9-----9----|-10----5----|--9---9--10--12--|
D|-10-----8----|-10----7----|-10--10--10--12--|
A|-10----10----|--8----5----|-10--11---8--10--|
E|--8-----8----|------------|--8---9----------|

**part nie aku xkonpem sgt


“-my…
e|--8----|
B|--8----|
G|--9----|
D|-10----|
A|-10----|
E|--8----|




xxxxxxxxxxxxxxxxxxxxxxxxxxxxxxxxxxxxxxxxxxxxxxxxxxxxxxxxxxx
k…any comments/requests please contact me..
zar_of_filth92@yahoo.com
for myspace users u can find me using my email..

Assalamualaikum…
Tap to rate this tab
 
# A B C D E F G H I J K L M N O P Q R S T U V W X Y Z