Song name
# A B C D E F G H I J K L M N O P Q R S T U V W X Y Z

Zee Avi - The Story tab

Zee Avi - The Story

Capo 1st Fret

Standard Tuning

Intro/Chorus

E---------------|-----------0----|------------------|
B-------1-------|-------0h1----0-|-------1----------|
G-----0----0----|-----0----------|-----0----0-------|
D---3---------1-|---3------------|---3---------0----|
A-0-------------|-0--------------|-0--------------0-|
E---------------|----------------|------------------|

Verse

E-------------------------------|
B-----5-3-------0h1p0-------1---|
G---------0---0-------0-------0-|
D---5-------3-------------0-----|
A-3---3-2---------------3-------|
E-------------------------------|

**not 100% sure**
Tap to rate this tab
 
# A B C D E F G H I J K L M N O P Q R S T U V W X Y Z