Zee Avi - The Story tab

The Story by Zee Avi
Capo 1
Standard Tuning


Intro/Chorus:

e|------------------------0-----------------------|
B|--------1-----------0h1---1--------1------------|
G|------0---0-------0--------------0---0----------|
D|----3-------3---3--------------3-------3---3----|
A|--0-----------0--------------0-----------0------|
E|------------------------------------------------|

Verse:

e|------0-----------------------------------------|
B|--------1-3---------0h1p0-------0h1p0-----------|
G|----0-------0-----0-------0---0-------0---------|
D|--------------0-3-------------------------------|
A|--3-------2-----------------3-------------------|
E|------------------------------------------------|

Broken dreams, broken dreams, hoping someday you'll see me
Sky is grey, sky is grey, but I'm dancing in the rain
Live this way, live this way, will you remember my name?
Live a lie, live a lie, why don't you ask yourself why...

Don't you open your eyes?

Only the moon, only the moon, only the moon will hear my plea
Only the creatures of the night will harmonize with me
Missed you so, missed you so and I wondered if you know
The wind has blown me in the corner and it's hard to let go

That's the story... that's the story of you and me
Tap to rate this tab
 
# A B C D E F G H I J K L M N O P Q R S T U V W X Y Z