Song name
# A B C D E F G H I J K L M N O P Q R S T U V W X Y Z

Zee Avi - I Am Me Once More tab

-------------------------------------------------------------------------------
	       I AM ME ONCE MORE - Zee Avi
-------------------------------------------------------------------------------
Tabbed by: theladybug

Tuning: standard

e|------------------------------------4----------4----------------------------------------|
B|----------4----------4------------0----------0-----------3----------3------------4--|
G|----------0----------0------------------------------------0----------0------------0--|
D|------------------------------3----------3----------------------------------------------|
A|----3----------3------------------------------------2-----------2-----------3---------|
E|------------------------------------------------------------------------------------------|

       No...                           I really don't think so...
       that you'd think I'd be incapable of being on my own
       No...                           I really don't think so
       that i would for a second let you back in through my door

I have spent many a-nights even when
you were by my side i shed tears i couldn't dry

But i should thank you for taking my blindfold off
now i ain't jaded no more, no more
And I take pride in bein' the one that said goodbye
that could only mean i am me, once more

You would turn your head the other way
so you wont have to listen to what i had to say

You assumed that i needed you
but you didnt realize that i needed no one but myself

But i should thank you for taking my blindfold off
now i ain't jaded no more, no more
And I take pride in bein' the one that said goodbye
that could only mean i am me, once more

Tap to rate this tab
# A B C D E F G H I J K L M N O P Q R S T U V W X Y Z