Song name
# A B C D E F G H I J K L M N O P Q R S T U V W X Y Z

Zee Avi - Honey Bee tab

Zee Avi - Honey Bee Guitar Tab
Honey Bee Tab
Intro and Verse:
   C              E                 Am                               F
e|-------------------------------------------------0-----------------------------------|
B|---------1-------------------0-------------1-----------------1------------------1----|
G|----0-----------------1---------------2-----------------2----------------2-----------|
D|----2-------2------2------------------2-------2-----2------------2-------3---------3-|
A|-3-----3------------------------2--0-----0-------0---------0----------0-------0------|
E|---------------0---------0-----------------------------------------------------------|

         G7                C                                                                     

                                                                 Add for Intro
e|-------------1---------------------------0-------------------|--------------------0--|
B|-----0--------------------------1----------------------1-----|-----------1-----------|
G|-----0------------------0------------------------0-----------|----0------------------|
D|-----0------------------2----------2---------2------------2--|----2----------2-------|
A|----------------2---3-------3------------3----------3--------|-3-------3----------3--|
E|--3------3---------------------------------------------------|-----------------------|

*Add before chorus
    C                     walk down
e|--------------------0-----------|
B|-------------1------------------|
G|------0-------------------------|
D|------2---------2-------2-------|
A|--3-------3---------3------3--2-|
E|--------------------------------|

chorus:  on the end of the 2nd time through this line use the walk down above
Am                  G7                 C
e|------------------------------------------------------------0------------------|
B|--------------1-------------------0------------------1--------------------1----|
G|--------------------------0------------------0---------------------0-----------| 3X
D|------2----------2--------0---------0--------2----------2-------2------------2-|
A|--0---0---0------------------------------3-------3----------3---------3--------|
E|----------------------3--------3-----------------------------------------------|


F                              Fm
e|-----------------------------------|
B|------1-----1-----1-----1-----1----|
G|------2-----2-----2-----2-----1----|
D|------3-----3-----3-----3-----3----|
A|-----------------------------------|
E|--1------1-----1-----1--------1----|


Verse:
C      E
I am a honey bee
Am
Shunned out from the colony
    F         G7     C
And they won't let me in
C     E
So I left the hive
Am
They took away all my stripes
    F         G7      C
And broke off both my wings
C       E           Am
So I'll find another tree
    F        G7      C
And make the wind my friend
C        E             Am
I'll just sing with the birds
         F       G7              C
They'll tell me secrets off the world

Chorus:
Am      G           C
But my other honey bee
Am             G            C
Stuck where he doesnt wanna be
Am     G             C
Oh my darling honey bee
           F
I'll come save you
           Fm                         C
Even if it means I'll have to face the queen
    E           Am       F        G7     C
Oh, pa ba pum badum pum. Paa da dadapapa dadum


Verse:
C      E
So I'll come prepared
   Am
My new friends say they would help me
F      G7        C
Get my loved one back
C           E
They say it isn't right
    Am
The bees have control of your mind
      F          G7          C
But I choose not to believe that
C        E           Am
 So well meet in the darkness of the night
      F              G7          C
And I promise I will be there on time
C        E            Am
 Well be guided by my new friends the butterflies
         F           G7         C
Bring us back to our own little hive

Chorus:
Am     G           C
Oh my other honey bee
           Am            G            c       
No longer stuck where he doesnt wanna be
Am    G             C
Oh my darling honey bee
       F                                 Fm
I have saved you and now that youre with me
                      C
We can make our own honey

E           Am       F        G7     C
Oh, pa ba pum badum pum. Paa da dadapapa dadum.



Tap to rate this tab
 
# A B C D E F G H I J K L M N O P Q R S T U V W X Y Z