Song name
# A B C D E F G H I J K L M N O P Q R S T U V W X Y Z

Zeest - Sutta Na Mila tab

E:------3---3-----2---2-|------3---3-----3---3-|
B:----3---3-----3---3---|----5---5-----1---1---| 
G:--0---------2---------|--4---------0---------|
D:----------------------|----------------------|
A:----------------------|----------------------|
E:----------------------|----------------------|

E:------3---3-----2---2-|------3---3---------0-|
B:----3---3-----3---3---|----5---5-----0-1-3---| 
G:--0---------2---------|--4-------------------|
D:----------------------|----------------------|
A:----------------------|----------------------|
E:----------------------|----------------------|

These four bars are played twice in the starting of the song. Enjoy!
Tap to rate this tab
 
# A B C D E F G H I J K L M N O P Q R S T U V W X Y Z