Song name
# A B C D E F G H I J K L M N O P Q R S T U V W X Y Z

Zeke - Fallen tab

E|----0---0-1---3-------0---0-1---3-------0---0-1---3-------0---0-1---3------|
A|------2-----3-----------2-----3-----------2-----3-----------2-----3--------|
D|---------------------------------------------------------------------------|
G|---------------------------------------------------------------------------|
B|---------------------------------------------------------------------------|
e|---------------------------------------------------------------------------|

E|----0---0-1---1-3---2-1---1------0---0-1---1-3---2-1---1-------------------|
A|------2-----2-----3-----2---2------2-----2-----3-----2---2-----------------|
D|---------------------------------------------------------------------------|
G|---------------------------------------------------------------------------|
B|---------------------------------------------------------------------------|
e|---------------------------------------------------------------------------|
Tap to rate this tab
 
# A B C D E F G H I J K L M N O P Q R S T U V W X Y Z