Song name
# A B C D E F G H I J K L M N O P Q R S T U V W X Y Z

Zeke - Mountain Man tab

mountain man


zeke


TRANSCRIBED BY RUDY GUZMAN


guzman_84@hotmail.com


e:-----------------------------------|
B:-----------------------------------|
G:-----------------------------------|
D:-----------------------------------|
A:-11-11--9--9-9--7-7-7---4-4-4--6-6-|
E:-9--9---7--7-7--5-5-5---2-2-2--4-4-|

e:-----------------------------------|
B:-----------------------------------|
G:-6-6--------------6-6-------6-8\6--|
D:-6-6--------------6-6-------6-8\6--|
A:-4-4--6-6--4-4-4--4-4--6-6--4-6\4--|
E:------4-4--2-2-2-------4-4---------|

e:-----------------------------------|
B:-----------------------------------|
G:-6-6--------------6-6-------6-8\6--|
D:-6-6--------------6-6-------6-8\6--|
A:-4-4--6-6--4-4-4--4-4--6-6--4-6\4--|
E:------4-4--2-2-2-------4-4---------|

verse                        x3
e:-----------------------------|
B:-----------------------------|
G:-6-6---------6-6--6-6-6--8\6-|
D:-6-6---4-4---6-6--6-6-6--8\6-|
A:-4-4-0-4-4-0-4-4--4-4-4--6\4-|
E:-------2-2-------------------|

e:-------------------------------|
B:-------------------------------|
G:-6-6---------6-6--6-6-6--6-6-6-|
D:-6-6---4-4---6-6--6-6-6--6-6-6-|
A:-4-4-0-4-4-0-4-4--4-4-4--4-4-4-|
E:-------2-2---------------------|


im the mountain man oh lord
:----------------------------|
:----------------------------|
:----------------------------|
:-7-7-7-7-7-7-7--4-4-4-4-4-4-|
:-7-7-7-7-7-7-7--4-4-4-4-4-4-|
:-5-5-5-5-5-5-5--2-2-2-2-2-2-|

mountain man
e:-------------|
B:-------------|
G:-6-6-6-------|
D:-6-6-6-------|
A:-4-4-4--2--4-|
E:--------0--2-|

verse                        x3
e:-----------------------------|
B:-----------------------------|
G:-6-6---------6-6--6-6-6--8\6-|
D:-6-6---4-4---6-6--6-6-6--8\6-|
A:-4-4-0-4-4-0-4-4--4-4-4--6\4-|
E:-------2-2-------------------|

e:-------------------------------|
B:-------------------------------|
G:-6-6---------6-6--6-6-6--6-6-6-|
D:-6-6---4-4---6-6--6-6-6--6-6-6-|
A:-4-4-0-4-4-0-4-4--4-4-4--4-4-4-|
E:-------2-2---------------------|


im the mountain man oh lord
:----------------------------|
:----------------------------|
:----------------------------|
:-7-7-7-7-7-7-7--4-4-4-4-4-4-|
:-7-7-7-7-7-7-7--4-4-4-4-4-4-|
:-5-5-5-5-5-5-5--2-2-2-2-2-2-|

mountain man
e:-------------|
B:-------------|
G:-6-6-6-------|
D:-6-6-6-------|
A:-4-4-4--2--4-|
E:--------0--2-|

e:----------------------------------------------------|
B:---------------9h12p9h12p9h12p9h12p9----------------|
G:--------------------------------------12-9-11-9-11b-|
D:-6--4--6--9-----------------------------------------|
A:-4--2--4--7-----------------------------------------|
E:----------------------------------------------------|

e:---------------------------------------|
B:---------------------------------------|
G:--------------5h7p5h7p5h7p5h7p5h7p5-7b-|
D:-6--4--6--9-9--------------------------|
A:-4--2--4--7-7--------------------------|
E:---------------------------------------|

standing in the crossroads
:------------------------------------------------|
:----------------------------------17b--18b--20b-|
:----------------------------------19b--20b--22b-|
:-2-2-2-2-2-2-2-2-2-2-2-2-2-2-2-2----------------|
:-0-0-0-0-0-0-0-0-0-0-0-0-0-0-0-0----------------|
:------------------------------------------------|

solo
e:----------------------------------------------------------------------------------------|
B:--------12-10-12--------12-10--13b-10h13p10----10---------------------------------------|
G:-12bp10-12-10-12-12bp10-12-10---------------13----13p10-12-10----10-12-10-----10-12-10b-|
D:--------------------------------------------------------------12-----------12-----------|
A:----------------------------------------------------------------------------------------|
E:----------------------------------------------------------------------------------------|

verse                        x3
e:-----------------------------|
B:-----------------------------|
G:-6-6---------6-6--6-6-6--8\6-|
D:-6-6---4-4---6-6--6-6-6--8\6-|
A:-4-4-0-4-4-0-4-4--4-4-4--6\4-|
E:-------2-2-------------------|

e:-------------------------------|
B:-------------------------------|
G:-6-6---------6-6--6-6-6--6-6-6-|
D:-6-6---4-4---6-6--6-6-6--6-6-6-|
A:-4-4-0-4-4-0-4-4--4-4-4--4-4-4-|
E:-------2-2---------------------|


im the mountain man oh lord
:----------------------------|
:----------------------------|
:----------------------------|
:-7-7-7-7-7-7-7--4-4-4-4-4-4-|
:-7-7-7-7-7-7-7--4-4-4-4-4-4-|
:-5-5-5-5-5-5-5--2-2-2-2-2-2-|

mountain man
e:-------------|
B:-------------|
G:-6-6-6-------|
D:-6-6-6-------|
A:-4-4-4--2--4-|
E:--------0--2-|


e:--------------|
B:--------------|
G:--------------|
D:-6--4--6--9---|
A:-4--2--4--7---|
E:--------------|

e:--------------|
B:--------------|
G:--------------|
D:-6--4--6--9-9-|
A:-4--2--4--7-7-|
E:--------------|

e:------------------|
B:------------------|
G:------------------|
D:--6--4------------|
A:--4--2---6-5-4----|
E:---------4-3-2--0-|

:-----------------------------------------|
:-----------------------------------------|
:--6--------------------------------------|
:--6--------------------------------------|
:--4--------------------------------------|
:--0--------------------------------------|
Tap to rate this tab
# A B C D E F G H I J K L M N O P Q R S T U V W X Y Z