Zelda - Song Of Time tab

Song of Time

e/--------------------/
B/-----5-8-----5-8----/
G/--7-------7-------7-/
D/--------------------/
A/--------------------/
E/--------------------/

e/----------------------------------------/
B/-------------------5-3-7-5--------------/
G/--10-9---5-3-5-7------------------------/
D/----------------------------------------/
A/----------------------------------------/
E/----------------------------------------/
Tap to rate this tab
 
# A B C D E F G H I J K L M N O P Q R S T U V W X Y Z