Song name
# A B C D E F G H I J K L M N O P Q R S T U V W X Y Z

Zelda - Sarias Song tab

|----------------|----------------|----------------|----------------|
|----------------|----------------|----------------|----------------|
|----------------|-------9-7------|----------------|----------------|
|--7-9-7-9-------|---7-9-----9-10-|-9--------------|----------------|
|-8---8----------|-8--------------|---10-7---------|-7-10-7---------|
|----------------|----------------|--------10------|----------------|


|----------------|----------------|----------------|----------------|
|----------------|----------------|----------------|----------------|
|----------------|-------9-7------|-9--------------|----------------|
|---7-9----7-9---|---7-9-----9-10-|---10--------10-|----------------|
|-8------8-------|-8--------------|------10--------|-10----7--------|
|----------------|----------------|----------------|----10----------|


|----------------|----------------|----------------|----------------|
|----------------|----------------|----------------|----------------|
|----------------|----------------|----------------|----7-9---------|
|-----------7-9--|-10-9-----------|-----------7-9--|-10-------------|
|----7-8--10-----|------7---------|----7-8--10-----|----------------|
|-10-------------|----------------|-10-------------|----------------|
Tap to rate this tab
 
# A B C D E F G H I J K L M N O P Q R S T U V W X Y Z