Guitaretab - guitar tabs
Song name
# A B C D E F G H I J K L M N O P Q R S T U V W X Y Z

Zeljko Joksimovic - Lane Moje tab

Lane Moje

----------------------------------------------------------|
-9-10-9h10p9-7----7-9 10p9p7h910p9p7h9--9-10-9h10p9-7----|
----------------9-----------------------------------------|
----------------------------------------------------------|
----------------------------------------------------------|
----------------------------------------------------------|

     tr            tr
----------------------------------------------------------|
-9------------------------------------------------7h8p7---|
---9p8---------8-8-8-----------8s9-9h11 h12p11p9--------9-|
---------11-9----------11-9h11----------------------------|
----------------------------------------------------------|
----------------------------------------------------------|
       tr
----------------|
-7-9------------|
-----9-8--------| (sviraj dva puta)
----------11-11-| (play twice)
----------------|
----------------|

Abm
Kad  na  te  pomislim
           Gbm           Dbm
bojim  se  da  te  opet  zavolim
Abm             F#m
u  modre  usne  zarijem  zube
           Dbm
da  pravu  bol  zaboravim


Dbm
Lane  moje  ovih  dana
                   Abm
vise  i  ne  tugu  jem
                         Gbm
pitam  samo  da  l'  si  sama
                     Dbm
ljude  koje  ne  cu  jem
[ Tab from: http://www.guitaretab.com/z/zeljko-joksimovic/174977.html ]
lane  moje  nocas  kreni
                      Abm
nije  vazno  bilo  s  kim
                     Gbm
nadji  nekog  nalik  meni
        Ab7           Dbm
da  te  barem  ne  vo lim

(violin)
-7-9-7------------7-9-7-----------   -7-7-7-7-------------|
--------10p9p7-9---------10p9p7-9-   ----------10p9p7-----|
----------------------------------   ---------------------|
----------------------------------   ---------------------|
----------------------------------   ---------------------|
----------------------------------   ---------------------|


----------------------------------------------------| (Sviraj jos jednom od
-7-7-7-7------------------7-------------------------|  prekida, drugi put
----------9p8p6-6-6-6-8-9---8-6-6-  se pjeva preko--|
----------------------------------------------------| (Repeat from space above
----------------------------------------------------|  words below go overtop
----------------------------------------------------|  on second time)
(nek' neko drugi kose ti ljubi, da tebe lakse prebolim)


Ebm
lane  moje  ovih  dana  (lane  moje)
                  Bbm
vise  i  ne  tugu jem  (lane  moje)
                         Abm
pitam  samo  da  l'  si  sama
                    Ebm
ljude  koje  ne  cu jem

lane  moje  nocas  kreni  (lane  moje)
                      Bbm
nije  vazno  bilo  s  kim
                     Abm
nadji  nekog  nalik  meni
        Bb7           Ebm
da  te  barem  ne  vo lim
        Bb7          Ebm
da  te  vise  ne  vo lim
Related for Lane Moje tab