Song name
# A B C D E F G H I J K L M N O P Q R S T U V W X Y Z

Zelliack - Hargrove tab

tabbed by: JDskate
http://youtu.be/fiL39H2PuIw

http://www.facebook.com/Zelliackband

e|-------------------------------------------------------------|
B|----------------------10-7/9---------------------12/14-15p14-|
G|-9/11~--11-10-9-10-11--------9-------------------------------|
D|-------------------------------9/11--7/9b11rb9\7-------------|
A|-------------------------------------------------------------|
E|-------------------------------------------------------------|


e|------------------------------9-------------------------------------------|
B|-14-15-17--15--14\9--10-12-13---10-9----10--------------------------------|
G|-------------------------------------11----10-13-9-11---------------------|
D|------------------------------------------------------11-9-7-9h11p9\7-----|
A|----------------------------------------------------------------------9-7-|
E|--------------------------------------------------------------------------|
Tap to rate this tab
# A B C D E F G H I J K L M N O P Q R S T U V W X Y Z