Song name
# A B C D E F G H I J K L M N O P Q R S T U V W X Y Z

Zenkil - Whos Ya Daddy tab

Help us improve GuitareTab! Take a short survey!
Zenkil,Who's Ya Daddy?.
Tabbed by Nathan,Nathan ernest@lycos.com.
  
drop d tuning

this is a simple tab, easy for new guitar learners try and download it, its good
intro
---------------------
---------------------
---------------------
-1-0--1-0--1-0-------
-1-0--1-0--1-0-------
-1-0--1-0--1-0-------

verse
---------------------
---------------------
---------------------
-0-1-0-3-1-0-------
-0-1-0-3-1-0-------
-0-1-0-3-1-0-------

play the intro then the verse then there is a keyboard solo then play the verse again.

now thats it simple if you cant play then keep trying cause people will laugh at you if you cant
download the song from mp3.com and search for Zenkil

if you want any other zenkil tabs email me 
:: Ultimate Guitar Archive :: 
http://www.ultimate-guitar.com 

Related for Whos Ya Daddy tab