Zeptepi - The End tab

http://zeptepi.info/

Intro/Verse
e|--0--3--|--0--0--|
b|--0--3--|--1--1--|
g|--0--0--|--2--0--|
d|--2--0--|--2--2--|
a|--2--2--|--0--3--|
E|--0--3--|--------|

e|-----------------------------------------------|
b|-----------------------------------------------|
g|-----------------------------------------------|
d|-----------------------------------------------|
a|--------------2--0-----------------2--0--------|
E|--0--0--3--0--------3--0--0--3--0--------3--0--|

Chorus
e|--1--0--0--3--|
b|--1--1--0--3--|
g|--2--2--0--0--|
d|--3--2--2--0--|
a|--3--0--2--2--|
E|--1-----0--3--|
Tap to rate this tab
 
# A B C D E F G H I J K L M N O P Q R S T U V W X Y Z