Zero 7 - Home tab

Zero 7
Home
When It Falls
Track 02


Dropped D Tuning

Intro

E----------------------------------------------------------------------|
B-------------------------4--------------------------4-----------------|
G-------7---5-7--5-7---------------7---5-7--5-7------------------------|
D----------------------------------------------------------------------|
A-------------------------------5--------------------------------------|
D----0-----------------------------------------------------------------|

Verse

E----------------------------------------------------------------------|
B-------3---1-3-----------3---1-3------3---1-3--------3---1-3----------|
G---------------------2------------------------------------------------|
D---------------------0------------------------------------------------|
A----0------------------------------3--------------2-------------------|
D----0------------------------------3--------------2-------------------|

E----------------------------------------------------------------------|
B-------3---1-3--------3---1-3---------3---1-3--------3---1-3---------*|
G----------------------------------------------------------------------|
D----0----------------------------0------------------------------------|
A---------------------------------------------------------------------*|
D----------------------------------------------------------------------|

Pre-Chorus

E---1---0--------------------------------------------------------------|
B---------3---1--------------------------------------------------------|
G-----------------2---0-------------7---5-7-------7---5-7--------------|
D-------------------------3-----5--------------------------------------|
A-------------------------------5--------------------------------------|
D-----------------------------0/5--------------------------------------|

E---0---1--------------------------------------------------------------|
B---------3---1--------------------------------------------------------|
G-----------------2---0-------------7---5-7-------7---5-7--------------|
D-------------------------3-----5--------------------------------------|
A-------------------------------5--------------------------------------|
D-----------------------------0/5--------------------------------------|

(softly play until chords)

E--------------------------------|
B--------------------------------|
G---7---5-7--------7-------------|
D------------------------3--3----|
A------------------------3--3-0--|
D------------------------3--3-0--|

Chorus 1

E------------------------------------------------------------|
B-------3---1-3---3------------------------------------------|
G------------------------------7---5-7---7-------------------|
D------------------------------------------------------------|
A----0--------------6-6-6---5--------------3--3-0------------|
D----0--------------6-6-6---5--------------3--3-0------------|

E------------------------------------------------------------|
B-------3---1-3---3------------------------------------------|
G------------------------------7---5-7-------7---5-7---------|
D------------------------------------------------------------|
A----0--------------6-6-6---5--------------------------------|
D----0--------------6-6-6---5--------------------------------|

Repeat Verse

Repeat Pre-Chorus

Chorus 2

E-----------------------------------------------------------|
B-------3---1-3-----3---1-3-------3---1-3-----3---1-3-------|
G-----------------------------------------------------------|
D----0------------------------------------------------------|
A------------------------------3-----------2----------------|
D------------------------------3-----------2----------------|

E---------------------------------|
B-----3---1-3-----3---1-3--------*|
G---------------------------------|
D---------------------------------|
A-----0--------------------------*|
D-----0---------------------------|

Bridge

E---1---0--------------------------------------------------------------|
B---------3---1--------------------------------------------------------|
G-----------------2---0-------------7---5-7-------7---5-7--------------|
D-------------------------3-----5--------------------------------------|
A-------------------------------5--------------------------------------|
D-----------------------------0/5--------------------------------------|

E---0---1--------------------------------------------------------------|
B---------3---1--------------------------------------------------------|
G-----------------2---0-------------7---5-7-------7---5-7--------------|
D-------------------------3-----5--------------------------------------|
A-------------------------------5--------------------------------------|
D-----------------------------0/5--------------------------------------|

E------------------------------------------------|
B------------------------------------------------|
G----7--7---5-7------7---5---5-5-----------------|
D----5-------------------3---3-3-----------------|
A----5-------------------3---3-3-----------------|
D----5-------------------3---3-3-----------------|

Outro

E------------------------------------------------|
B----3--3---1-3------3---------------------------|
G----2-------------------8-8-8-------------------|
D----0-------------------6-6-6-------------------|
A----0-------------------6-6-6-------------------|
D----0-------------------6-6-6-------------------|

E------------------------------------------------|
B------------------------------------------------|
G----7--7---5-7------7---5---5-5-----------------|
D----5-------------------3---3-3-----------------|
A----5-------------------3---3-3-----------------|
D----5-------------------3---3-3-----------------|

Repeat ~10x

Solo

E---------------------------------5---------------|
B-----------------------------5-8-----------------|
G----5----------------------7-------7-------------|
D-------x-3-0-3----5-3----------------------------|
A----------------------5--------------------------|
D-------------------------------------------------|

E-----8-7---5-------------------------------------|
B----6--------8---6-5-----------------------------|
G----------------------7--5----5------------------|
D----------------------------7--------------------|
A-------------------------------------------------|
D-------------------------------------------------|

Lyrics

Lost in cheap delirium
Searching the neon lights
I move carefully
Sink in the city aquarium
Sing in the key of night
As they're watching me

Take me somewhere we can be alone
Make me somewhere I can call a home
'Cause lately I've been losing on my own

Wrapped in silent elegance
Beautifully broken down
As illusions burst
Too late to learn from experience
Too late to wonder how
To finish first

Take me somewhere we can be alone
Make me somewhere I can call a home
'Cause lately I've been losing on my own

Take me somewhere we can be alone
Make me somewhere I can call a home
Won't you take me home
Won't you take me home
'Cause lately I've been losing on my own
Won't you take me home
Tap to rate this tab
 
# A B C D E F G H I J K L M N O P Q R S T U V W X Y Z