Guitaretab - guitar tabs
Song name
# A B C D E F G H I J K L M N O P Q R S T U V W X Y Z

Zero 7 - In The Waiting Line tab

This isn't very difficult by any means, but at the same time it's rather barebones,
meaning that some of the harmonizing notes are simply not there.  What I have is right,
but not complete.  Either way, here is a pretty little start for you, and if you would
like to improve on it or add to it at all, be my guest.  I just like the music. For the
rest of it, have fun with Ed B's tab.  Enjoy.
-M.A. Tschirhart
QCC's & BGC's: mooker13@hotmail.com

T=~ 2:50
[ Tab from: http://www.guitaretab.com/z/zero-7/58606.html ]
e|--------------------------------------------------------------------|
B|----------------------------------------------------13-11-----------|
G|-------12-11-11p10-----10---10---10---10h11/12----12------12p10-----|
D|-10-13---------------13---13---13---13------------------------------|
A|--------------------------------------------------------------------|
E|--------------------------------------------------------------------|

e|-13h14p13-----11-------------18-------------------------------------|
B|----------13-(16)-13---18 20----20-19p18--16h18-18-16-18-16-18h20--|
G|--------------------------------------------------------------------|
D|--------------------------------------------------------------------|
A|--------------------------------------------------------------------|
E|--------------------------------------------------------------------|

e|--------------------------------------------------------------------|
B|--17h18p17----16~~--------------------------------------------------|
G|-----------17---------17h20-20-17------3/5-5-0-5--------------------|
D|----------------------------------20-5------------------------------|
A|--------------------------------------------------------------------|
E|--------------------------------------------------------------------|
Related for In The Waiting Line tab