Guitaretab - guitar tabs
Song name
# A B C D E F G H I J K L M N O P Q R S T U V W X Y Z

Zero Assoluto - Quello Che Mi Davi Tu tab

++++++++++++++++++++++++++++++++++++++++
| Zero Assoluto- Quello Che Mi Davi Tu |
++++++++++++++++++++++++++++++++++++++++


"É stato eterno, senza fiato..."

Tuning: EADGBe


Weno esta la sake espesial
pal Morta, un saludo pa ti compadre :D
Sigue kon la music es lo mejor


Chords used in this song:


D:  xx0232 
G:  320003
Bm: 224432
A:  x02220
Em: 022000



Verse


D              G
Ciao      Come stai?
      Bm       A
Tutto bene?    Mi hai pensato mai?

D           Em
Sai, giusto ieri
      Bm    A
ti ho vista camminavi tra i negozi


"Quanti ricordi..."
1.
e|-------2~----------------------------------------|
B|----3~-------------------------3~----------------|
G|-2~-------------------------4~-------------------|
D|-------------------------4~----------------------|
A|-------------------------------------------------|
E|-------------------------------------------------|

D       Em
    Quanti ricordi
Bm     G
    Mi son tornati in mente

D       Em
    Guardando
Bm    A
    I tuoi capelli

Pre-Chorus


D   G
    Non pensavo
Bm         A
    Che bastasse cosí poco

D       G
    Per ricordare
Bm         A    
    Chi cercavo di dimenticare


"Da tanto tempo..."
2.
e|-------2~----------------------------------------|
B|----3~-------------------------3~----------------|
G|-2~-------------------------4~-------------------|
D|-------------------------4~----------------------|
A|-------------------------------------------------|
E|-------------------------------------------------|


D      G
    Da tanto tempo
Bm    A
    e per paura

D      G              Bm
    di non trovare un'altra
       A
che mi desse


Chorus
"Quello che mi davi tu..."
3.
e|-----2-------2-------3-------3-2-----10-------9-------7-------5---|
B|-------------------0---0---0-----0-7----7-0-7---7-----------3---3-|
G|---2---2---2---2----------------------------------0-7---7-0-------|
D|-0-------0-------2-------2----------------------------------------|
A|------------------------------------------------------------------|
E|------------------------------------------------------------------|

[ Tab from: http://www.guitaretab.com/z/zero-assoluto/115640.html ]
                    D
Quello che mi davi tu
          Em
che avevi tu
                   Bm
Quello che mi davi tu
          G
che avevi tu



Verse

D - Em - Bm - A


Pre-Chorus

"Non pensavo..."
4.
e|-------2~----------------------------------------|
B|----3~-------------------------3~----------------|
G|-2~-------------------------4~-------------------|
D|-------------------------4~----------------------|
A|-------------------------------------------------|
E|-------------------------------------------------|

D - G - Bm - A


Chorus
"Quello che mi davi tu..."
5.
e|-----2-------2-------3-------3-2-----10-------9-------7-------5---|
B|-------------------0---0---0-----0-7----7-0-7---7-----------3---3-|
G|---2---2---2---2----------------------------------0-7---7-0-------|
D|-0-------0-------2-------2----------------------------------------|
A|------------------------------------------------------------------|
E|------------------------------------------------------------------|


                    D
Quello che mi davi tu
          Em
che avevi tu
                   Bm
Quello che mi davi tu
          G
che avevi tu



Lyrics:



Ciao Come stai?
Tutto bene? Mi hai pensato mai?
Sai, giusto ieri
ti ho vista camminavi tra i negozi

Quanti ricordi
Mi son tornati in mente
Guardando
I tuoi capelli
Non pensavo
Che bastasse cosí poco
Per ricordare
Chi cercavo di dimenticare

Da tanto tempo
e per paura
di non trovare un'altra
che mi desse

Quello che mi davi tu
che avevi tu
quello che mi davi tu
che avevi tu

É stato eterno, senza fiato
solo un momento, giusto il tempo
di sentire l'inverno che ci avvolge stanotte
che ti fa perdere il senso che a volte
sembrava molto piú intenso, molto piú bello
Molto piú forte di questo
e solo quando ritorni fermo nel tempo
trovando la forza che ho perso
Tu cosí importante
tu cosí presente, tu cosí per sempre
Che mi vesto dei miei limiti, 
tutto se n’è andato ma restano i brividi
E mi aspettavo,sai? tutto più facile, 
è che nessuno ti insegna a ricevere
Forse non serve adesso più chiedere scusa, 
lo senti questo silenzio che pesa




+++++++++++++++++++++++++++++++++
| RaiLeff                       |
| Underground__Dora@Hotmail.Com |
+++++++++++++++++++++++++++++++++
Related for Quello Che Mi Davi Tu tab
Advertisement will be closed in 10 seconds