Guitaretab - guitar tabs
Song name
# A B C D E F G H I J K L M N O P Q R S T U V W X Y Z

Zero Boys - Dirty Alleys Dirty Minds tab

-------------------------------------------------------------------------------
Dirty Alleys/Dirty Minds - Zero Boys
Vicious Circle
-------------------------------------------------------------------------------
Tabbed by: axeslash
Email: holmzito@yahoo.com

Tuning: Both guitars standard

Guitar 1:
e|------------------------------------------|
B|------------------------------------------|
G|-7----------------5-----------------------|
D|-7----------------5-----------------------|
A|-5----------------3---------0-2-3-0-2-3-5-|
E|------------------------------------------| x3

Guitar 1:
e|-------------------------------------------------------------|
B|-------------------------------------------------------------|
G|-7----------------5-----------------5--5-5--5-2--2-2-2-2-2-2-|
D|-7----------------5-----------------5--5-5--5-2--2-2-2-2-2-2-|
A|-5----------------3-----------------3--3-3--3-0--0-0-0-0-0-0-|
E|-------------------------------------------------------------|

Guitar 1:                               Guitar 1:
e|--------------------------------|     e|---------------------------------|
B|--------------------------------|     B|---------------------------------|
G|--------------------------------|     G|---------------------------------|
D|-4-4-4-4-4-4-4-4-4-4-4-4-4-4-7--|     D|-4-4-4-4-4-4-4-4-4-4-4-4-4-4-4-4-|
A|-4-4-4-4-4-4-4-4-4-4-4-4-4-4-7--|     A|-4-4-4-4-4-4-4-4-4-4-4-4-4-4-4-4-|
E|-2-2-2-2-2-2-2-2-2-2-2-2-2-2-5--| x3  E|-2-2-2-2-2-2-2-2-2-2-2-2-2-2-2-2-|

Guitar 1:                               Guitar 1:
e|--------------------------------|     e|--------------------------|
B|--------------------------------|     B|--------------------------|
G|-7-7-7-7-7-7-5--5-5-5-5-5-5-5-5-|     G|-5--5-5--5-2--2-2-2-2-2-2-|
D|-7-7-7-7-7-7-5--5-5-5-5-5-5-5-5-|     D|-5--5-5--5-2--2-2-2-2-2-2-|
A|-5-5-5-5-5-5-3--3-3-3-3-3-3-3-3-|     A|-3--3-3--3-0--0-0-0-0-0-0-|
E|--------------------------------| x3  E|--------------------------|

Guitar 1:                               Guitar 1:
e|--------------------------------|     e|---------------------------------|
B|--------------------------------|     B|---------------------------------|
G|--------------------------------|     G|---------------------------------|
D|-4-4-4-4-4-4-4-4-4-4-4-4-4-4-7--|     D|-4-4-4-4-4-4-4-4-4-4-4-4-4-4-4-4-|
A|-4-4-4-4-4-4-4-4-4-4-4-4-4-4-7--|     A|-4-4-4-4-4-4-4-4-4-4-4-4-4-4-4-4-|
E|-2-2-2-2-2-2-2-2-2-2-2-2-2-2-5--| x3  E|-2-2-2-2-2-2-2-2-2-2-2-2-2-2-2-2-|

Guitar 1:
e|------------------------------------------------------|
B|------------------------------------------------------|
G|-9-9-9-9-9-9-9-9-9-9-9-9-9-9-9-9-10------10-----10----|
D|-9-9-9-9-9-9-9-9-9-9-9-9-9-9-9-9-10--10--10--10-10-10-|
A|-7-7-7-7-7-7-7-7-7-7-7-7-7-7-7-7--8--10---8--10--8-10-|
E|--------------------------------------8-------8-----8-| x2
[ Tab from: http://www.guitaretab.com/z/zero-boys/110255.html ]
Guitar 1:                               Guitar 1:
e|--------------------------------|     e|--------------------------|
B|--------------------------------|     B|--------------------------|
G|-7-7-7-7-7-7-5--5-5-5-5-5-5-5-5-|     G|-5--5-5--5-2--2-2-2-2-2-2-|
D|-7-7-7-7-7-7-5--5-5-5-5-5-5-5-5-|     D|-5--5-5--5-2--2-2-2-2-2-2-|
A|-5-5-5-5-5-5-3--3-3-3-3-3-3-3-3-|     A|-3--3-3--3-0--0-0-0-0-0-0-|
E|--------------------------------| x3  E|--------------------------|

Guitar 1:
e|-----------------------------------|
B|-----------------------------------|
G|-----------------------------------|
D|-4----------------4----------------|
A|-4----------------4----------------|
E|-2----------------2----------------|
Guitar 2:
e|------------------------------------------------------|
B|-------------------------------------------------7----|
G|-6--4h6p4-2-----------------6--4h6p4-2----4--6--------|
D|---------------4p2------------------------------------|
A|-------------------4p2-0------------------------------|
E|------------------------------------------------------|

Guitar 1:
e|-----------------------------------|
B|-----------------------------------|
G|-----------------------------------|
D|-4----------------4----------------|
A|-4----------------4----------------|
E|-2----------------2----------------|
Guitar 2:
e|-----------------------------------------------------|
B|--------------------------------------------4h6h7----|
G|-6--4h6p4-2-----------------6--4h6p4-2----4----------|
D|---------------4p2-----------------------------------|
A|-------------------4p2-0-----------------------------|
E|-----------------------------------------------------|

Guitar 1:                               Guitar 1:
e|--------------------------------|     e|--------------------------|
B|--------------------------------|     B|--------------------------|
G|-7-7-7-7-7-7-5--5-5-5-5-5-5-5-5-|     G|-5--5-5--5-2--2-2-2-2-2-2-|
D|-7-7-7-7-7-7-5--5-5-5-5-5-5-5-5-|     D|-5--5-5--5-2--2-2-2-2-2-2-|
A|-5-5-5-5-5-5-3--3-3-3-3-3-3-3-3-|     A|-3--3-3--3-0--0-0-0-0-0-0-|
E|--------------------------------| x3  E|--------------------------|

Guitar 1:                               Guitar 1:
e|--------------------------------|     e|---------------------------------|
B|--------------------------------|     B|---------------------------------|
G|--------------------------------|     G|---------------------------------|
D|-4-4-4-4-4-4-4-4-4-4-4-4-4-4-7--|     D|-4-4-4-4-4-4-4-4-4-4-4-4-4-4-4-4-|
A|-4-4-4-4-4-4-4-4-4-4-4-4-4-4-7--|     A|-4-4-4-4-4-4-4-4-4-4-4-4-4-4-4-4-|
E|-2-2-2-2-2-2-2-2-2-2-2-2-2-2-5--| x3  E|-2-2-2-2-2-2-2-2-2-2-2-2-2-2-2-2-|

Guitar 1:
e|------------------------------------------------------|
B|------------------------------------------------------|
G|-9-9-9-9-9-9-9-9-9-9-9-9-9-9-9-9-10------10-----10----|
D|-9-9-9-9-9-9-9-9-9-9-9-9-9-9-9-9-10--10--10--10-10-10-|
A|-7-7-7-7-7-7-7-7-7-7-7-7-7-7-7-7--8--10---8--10--8-10-|
E|--------------------------------------8-------8-----8-| x4



| /  slide up
| \  slide down
| h  hammer-on
| p  pull-off
| ~  vibrato
| +  harmonic
| x  Mute note
===============================================================================
Related for Dirty Alleys Dirty Minds tab
Advertisement will be closed in 10 seconds