Guitaretab - guitar tabs
Song name
# A B C D E F G H I J K L M N O P Q R S T U V W X Y Z

Zero Down - A Million More tab

Song: A Million More
Artist: Zero Down
Album: With A Lifetime To Pay

Drop-D Tuning

Intro:

E|-------------(4x)----------------|
B|---------------------------------|
G|---------------------------------|
D|---------------------------------|
A|--7/888-7/888--7/888-7/888-8/10--|
D|--0-000-0-000--0-000-0-000-0--0--|

2nd guitar plays this at 0:08

E|--------------(2x)--------------|
B|--------------------------------|
G|--------------------------------|
D|--0-----0------0-----0-----2/3--|
A|--0-----0------0-----0-----2/3--|
D|--0-----0------0-----0-----2/3--|

Intro 2: 0:16

E|-------(4x)------|
B|-----------------|
G|------------7----|
D|--0--3-2-0--7-0--|
A|--0--3-2-0--5-0--|
D|--0--3-2-0----0--|

Verse:

(A subordinate life...)
E|---------------|
B|----(6x)-------|
G|---------------|
D|--0----0--2/3--|
A|--0----0--2/3--|
D|--0----0--2/3--|

Chorus:

E|----------------------------------------------------------|
B|----------------------------------------------------------|
G|------------------------------333333333333--222222222222--|
D|--000000000000--333333333333--333333333333--222222222222--|
A|--000000000000--333333333333--111111111111--000000000000--|
D|--000000000000--333333333333------------------------------|
[ Tab from: http://www.guitaretab.com/z/zero-down/60738.html ]
(I'm a face...)
E|----------------------------------------------------------|
B|----------------------------------------------------------|
G|----------------333333333333--555555555555--222222222222--|
D|--000000000000--333333333333--555555555555--222222222222--|
A|--000000000000--111111111111--333333333333--000000000000--|
D|--000000000000--------------------------------------------|

(I'm a face...)
E|----------------------------------------------------------|
B|----------------------------------------------------------|
G|--7777-99--1010--7777-1212----14141414141414141414141414--|
D|----------------------------------------------------------|
A|--5555-77---8-8--5555-1010----12121212121212121212121212--|
D|----------------------------------------------------------|

End Chorus:

(Disregard my sacrifce...)
E|----------------------------------------------------------|
B|----------------------------------------------------------|
G|------------------------------333333333333--222222222222--|
D|--000000000000--333333333333--333333333333--222222222222--|
A|--000000000000--333333333333--111111111111--000000000000--|
D|--000000000000--333333333333------------------------------|

(I have silenced...)
E|----------------------------------------------------------|
B|----------------------------------------------------------|
G|----------------333333333333--555555555555--222222222222--|
D|--000000000000--333333333333--555555555555--222222222222--|
A|--000000000000--111111111111--333333333333--000000000000--|
D|--000000000000--------------------------------------------|
Related for A Million More tab