Song name
# A B C D E F G H I J K L M N O P Q R S T U V W X Y Z

Zero Friction - Save Me tab

Latest Zero Friction song written, heres how 2 play it.

Intro
e--12--12--10--8--10--8--10--8--6
B--------------------------------
G--------------------------------    X2
D--------------------------------
A--------------------------------
E--------------------------------
THEN
e----------------------------------
B----------------------------------
G--77----55----333--333----222--222   X2
D--77----55----333--333----222--222   WITH DISTORTION
A----------------------------------
E----------------------------------

VERSE
e----------------------------------
B----------------------------------
G--77----55----333--333----222--222   X8
D--77----55----333--333----222--222   NO DISTORTION
A----------------------------------
E----------------------------------

CHORUS
e----------------------------------
B----------------------------------
G----------------------------------
D--77----55----333--333----444--444
A--77----55----333--333----444--444
E--55----33----111--111----222--222

Play it like this

Intro, Verse, Chorus, Verse, Chorusx2, Intro, Verse, Chorus
Tap to rate this tab
# A B C D E F G H I J K L M N O P Q R S T U V W X Y Z