Song name
# A B C D E F G H I J K L M N O P Q R S T U V W X Y Z

Zero Gravity - Everywhere tab

   x=strum while holding down strings
           (Intro)
   ---------------------------
   ---------------------------   4X
   ----------------55-xxxx----
   -0-0000-0-xxxx--55-xxxx-55-
   -0-0000-0-xxxx--33-xxxx-55-
   ------------------------33-
           (Verse)
   ---------------------------
   ---------------------------   3X
   ---------------------------   
   5555-7777-555-444-3--------
   5555-7777-555-444-3--------
   3333-5555-333-222-1--------
           (Verse)
   ---------------------------
   ---------------------------
   ---------------------------
   5555-7777-888-7-7-6-5------
   5555-7777-888-7-7-6-5------
   3333-5555-666-5-5-4-3------
Tap to rate this tab
# A B C D E F G H I J K L M N O P Q R S T U V W X Y Z