Song name
# A B C D E F G H I J K L M N O P Q R S T U V W X Y Z

Zero Gravity - Stealing Love tab

Help us improve GuitareTab! Take a short survey!
/-slide down
\-slide up
b-bend
p-pulloff
E|---------------------------------------------|-----------------------|
B|---------------------------------------------|-----------------------|
G|-----10-b12-----10-b12-----10-b12-----10-b12-|-----------------------|
D|-9/12-------9/12-------9/12-------9/12-------|-12\9--10--12\9--10----|
A|---------------------------------------------|-----10-------10-------|
E|---------------------------------------------|-----------------------|

---------------------|----------------------------|--------------------|
---------------------|----------------------------|-12-12-b12-10-------|
---------------------|-11p9-11p9-11p9--------9-11-|--------------------|
-12\9--10-12\9--10---|----------------11-11-9-----|--------------------|
-----10-------10-----|----------------------------|--------------------|
---------------------|----------------------------|--------------------|

-15-12-10-10-12-15---|-20-17--20-17-20-17-20-17-b20--|
-15-12-10-10-12-15---|-20-17--20-17-20-17-20-17------|
---------------------|-------------------------------|
---------------------|-------------------------------|
---------------------|-------------------------------|
---------------------|-------------------------------|
Related for Stealing Love tab