Guitaretab - guitar tabs
Song name
# A B C D E F G H I J K L M N O P Q R S T U V W X Y Z

Zeromancer - Hollywood tab

Artist: Zeromancer
Song  : Hollywood
Album : ZZYZX
Tuning: Drop C

Intro/Verse 
Lead Guiar 
D|----------------------------------------------------------------|
A|----------------------------------------------------------------|
F|--------------------------------------------------------5-------|
C|777757--777757--777757--77775---777757--777757--777757--5---5---|
G|777757--777757--777757--77775---777757--777757--777757--3---5---|
C|777757--777757--777757--77775---777757--777757--777757------5---|

Rhythm Guitar 
D|5/3----5/3----5/3--|
A|-----4------4------|
F|-------------------|
C|-------------------|
G|-------------------|
C|-------------------|

Chorus 
Lead Guitar (dist.)
D|----------------------------------------------------------------|
A|10~~~~~~~~~~~~~~8~~~~~~~----------------------------------------|
F|-9~~~~~~~~~~~~~~7~~~~~~~10~~~~~~9~~~~~~~~~~~~~~~7~~~~~~~~~~~~~~~|
C|-7~~~~~~~~~~~~~~5~~~~~~~10~~~~~~9~~~~~~~~~~~~~~~7~~~~~~~~~~~~~~~|
G|-------------------------8~~~~~~7~~~~~~~~~~~~~~~5~~~~~~~~~~~~~~~|
C|----------------------------------------------------------------|
  
[ Tab from: http://www.guitaretab.com/z/zeromancer/144365.html ]
D|----------------------------------------------------------------|
A|10~~~~~~~~~~~~~~13~~~~~~8~~~~~~~--------------------------------|
F|-9~~~~~~~~~~~~~~12~~~~~~7~~~~~~~10~~~~~~9~~~~~~~7~~~~~~~~~~~~~~~|
C|-7~~~~~~~~~~~~~~10~~~~~~5~~~~~~~10~~~~~~9~~~~~~~7~~~~~~~~~~~~~~~|
G|---------------------------------8~~~~~~7~~~~~~~5~~~~~~~~~~~~~~~|
C|----------------------------------------------------------------|

Rhythm Guitar (dist.)
D|----------------------------------------------------------------|
A|----------------------------------------------------------------|
F|7~~~~~~~~~~~~~~~10~~~~~~~~~~~~~~--------------------------------|
C|7~~~~~~~~~~~~~~~-8~~~~~~~~~~~~~~10~~~~~~~~~~~~~~8~~~~~~~~~~~~~~~|
G|5~~~~~~~~~~~~~~~-8~~~~~~~~~~~~~~10~~~~~~~~~~~~~~8~~~~~~~~~~~~~~~|
C|--------------------------------10~~~~~~~~~~~~~~8~~~~~~~~~~~~~~~|


D|----------------------------------------------------------------|
A|----------------------------------------------------------------|
F|7~~~~~~~~~~~~~~~10~~~~~~~~~~~~~~--------------------------------|
C|7~~~~~~~~~~~~~~~-8~~~~~~~~~~~~~~10~~~~~~~~~~~~~~8~~~~~~~~~~~~~~~|
G|5~~~~~~~~~~~~~~~-8~~~~~~~~~~~~~~10~~~~~~~~~~~~~~8~~~~~~~~~~~~~~~|
C|--------------------------------10~~~~~~~~~~~~~~8~~~~~~~~~~~~~~~|

Solo (during chorus outro)
D|7-----5/3-------|
A|------------3/5-|
F|----------------|
C|----------------|
G|----------------|
C|----------------|
Related for Hollywood tab
Hollywood chords by Zeromancer