Song name
# A B C D E F G H I J K L M N O P Q R S T U V W X Y Z

Zetazeroalfa - Vita Mia chords

Highlighted       Show chord diagrams
Chords
    D     Bm    G     E    A    C#5  Bb5
e|-------------------------------------|
B|--7-----3-----8-----5----------------|
G|--7-----4-----7-----3----6----6----3-|
D|--7-----4-----5-----2----7----6----3-|
A|--5-----2-----x-----x----7----4----1-|
E|-------------------------5-----------|

Intro

D   Bm   G  E  D  A 

e|------------------5--------------------------------------3--3--3-3-2----------------|
B|---3----3/5--5-7----7--5--7-5--3---2-3---2-3-2-----------------------5--3--2-3-5--3-|
G|-2----------------------------------------------4---4---4---------------------------|
D|------------------------------------------------------------------------------------|
A|------------------------------------------------------------------------------------|
E|------------------------------------------------------------------------------------|


D                                        Bm
Ti ricordi l'altra sera quando abbiam parlato?
G                      E                                  D     A
Mi hai detto: «Scusa, caro, il nostro amore è ormai finito!»
D                                        Bm
Il tempo di tirare su le braghe e son prtito
G                     E                         D
Con in tasca soltanto il tuo bellissimo sorriso!


Chorus ----------------------------------------------

A                   D                        Bm
E mi son reso conto che questa vita mia vola via!
G           E                    D
In un'altra sera passata in birreria!
A                   D                        Bm
E mi son reso conto che questa vita mia vola via!
G           E                 D         A
In un'altra notte piena di polizia!
-----------------------------------------------------

D                       
E adesso a me cosa mi resta?
Bm
Il tuo ricordo, tanti amici e una sbornia nella testa
G                  E                              D    A
Forse è meglio per te, ma forse è megio anche per me
D                           Bm
E cosa vuoi che io ti dica? Lo sai, la vita gira e va,
G                 E                   D
Ma se era vero amore ci rivedremo qua!


Chorus

D               Bm               
Sono disperato, sono disturbato!
                G           E
Sono devastato, sono disumanizzato!
D
Sono così!


Chorus x 4

Outro

C#5/D5  C#5/D5  C#5/D5     Bb5/B5   Bb5/B5   Bb5/B5  G  E   D



http://www.zetazeroalfa.org/
Tap to rate this tab
 
# A B C D E F G H I J K L M N O P Q R S T U V W X Y Z