Song name
# A B C D E F G H I J K L M N O P Q R S T U V W X Y Z

Zetazeroalfa - Fare Blocco chords

Highlighted       Show chord diagrams
ZetaZeroAlfa - Fare Blocco

Intro:
    Am             D           
e|---------------------------------------|
B|---------------------------------------|
G|---------------------------------------|
D|-----------5-4---7-7-7-7-7-------------|
A|---7-------3-2---5-5-5-5-5-------------| x4
E|---5-----------------------------------|


Verse:
Guitar 2 (plays behind during verse)
     Em            D
e|---------------------------------------------------------------------------|
B|---------------------------------------------------------------------------|
G|---------------------------------------------------------------------------|
D|---9--9-9--9-9----7--7-7--7-7----------------------------------------------|
A|---7--7-7--7-7----5--5-5--5-5----------------------------------------------|
E|---------------------------------------------------------------------------|


Am                   D   Am                D
«Sono solo uno studente, io non posso fare niente!»
Am                    D    Am              D 
Poi ho capito il risultato e un cammino ho iniziato
Am                  D      Am                     D
Sotto il fulmine cerchiato il mio destino s'è annodato
Am                D       Am                  D
Con lo stesso mio destino nel ragazzo a me vicino!


C                   G      D                      Am
Mille cuori, una bandiera, mille braccia verso il sole!
C              G                        D             Am
Siamo sudati d'allegria, siamo svegli a tutte l'ore!
C                   G      D                      Am
Mille cuori, una bandiera, mille braccia verso il sole!
C                   G                   D             Am
Siamo sudati d'allegria, siamo svegli a tutte l'ore!

G              B                        C
E si aprirà la folla al passaggio della banda!
                      Am                         G
Siamo il Blocco Studentesco, state tutti bene in guardia!
               B                        C
E si aprirà la folla al passaggio della banda!
                      Am                         G
Siamo il Blocco Studentesco, non si fermerà la marcia!

G    B  C   D# D

    Am             D           
e|---------------------------------------|
B|---------------------------------------|
G|---------------------------------------|
D|-----------5-4---7-7-7-7-7-------------|
A|---7-------3-2---5-5-5-5-5-------------| x4
E|---5-----------------------------------|


«Tanto il mondo non si cambia!», «Non m'importa!» aggiungo io
Lui di certo non mi cambia, ma non cambierò neanch'io
Sotto il fulmine cerchiato ho capito il loro gioco
Il controllo delle menti e il profitto contro il fuoco!

Mille cuori, una bandiera, mille braccia verso il sole!
Siamo sudati d'allegria, siamo svegli a tutte l'ore!
Mille cuori, una bandiera, mille braccia verso il sole!
Siamo sudati d'allegria, siamo svegli a tutte l'ore!

E si aprirà la folla al passaggio della banda!
Siamo il Blocco Studentesco, state tutti bene in guardia!
E si aprirà la folla al passaggio della banda!
Siamo il Blocco Studentesco, non si fermerà la marcia!

G    B  C   D# D

G    B  C   Am

E si aprirà la folla al passaggio della banda!
Siamo il Blocco Studentesco, state tutti bene in guardia!
E si aprirà la folla al passaggio della banda!
Siamo il Blocco Studentesco, non si fermerà la marcia!
Tap to rate this tab
# A B C D E F G H I J K L M N O P Q R S T U V W X Y Z