Guitaretab - guitar tabs
Song name
# A B C D E F G H I J K L M N O P Q R S T U V W X Y Z

Zetta Bytes - When The Rain Falls tab

 Intro:                                    Verse:
e|-------------2---------------------------|------------------0h2p0-----------|
B|-3-0-0---------3-----3-------2---------3-|-------3--------3-------------3---|
G|-0-----0---2-----------4-------2-----0---|-----0---0---2--------------0-----|
D|-0-------0---------4-------2-------------|-----------0--------------------0-|
A|-2---------------2-------0---------2-----|---2----------------------2-------|
E|-3-------------------------------3-------|-3----------------------3---------|
             (Play x2)
e|---0-------|-------------------0h2p0--------------------------|-----2-------|
B|---------2-|-------3---------3-----------3-----3-----3-----3--|-------3-----|
G|-2---------|-----0---0----2-----------------------------------|---2---------|
D|-------2---|-----------0---------------4-----2----------------|-0---------4-|
A|-----0-----|---2---------------------2-----0-------2-----2----|---------2---|
E|-----------|-3-----------------------------------3-----2------|-------------|
                         Chorus:
e|-----------------------|-------2-----------------------2-------------3-----|
B|-3-------2---------3-3-|-----3---3---------2-----------------------3---3---|
G|---4-------2-----0---0-|---2-------2-----2---2-------4---4---------------0-|
D|-------2-------------0-|-0-------------2-------2---4-------4---------------|
A|-----0---------2-----2-|-------------0-----------2-----------2---2---------|
E|-------------3-------3-|---------------------------------------3-----------|

e|-------2-----------------------2-------------3-----------2-----------------|
B|-----3---3---------2-----------------------3---3-------3---3---------2-----|
G|---2-------2-----2---2-------4---4---------------0---2-------2-----2---2---|
D|-0-------------2-------2---4-------4---------------0-------------2-------2-|
A|-------------0-----------2-----------2---2---------------------0-----------|
E|---------------------------------------3-----------------------------------|
[ Tab from: http://www.guitaretab.com/z/zetta-bytes/61008.html ]
e|-------2-------------3-----------2-----------------------2-------------2---|
B|-------------------3---3-------3---3---------2-----------------------3---3-|
G|-----4---4---------------0---2-------2-----2---2-------4---4-------4-------|
D|---4-------4---------------0-------------2-------2---4-------4---4---------|
A|-2-----------2---2---------------------0-----------2-----------2-----------|
E|---------------3-----------------------------------------------------------|
                                             Post-chorus/Pre-verse
e|-------------2-----------------------2-----|-------3-----------2-----------|
B|-----------3---3---------2---------3---3---|-----3---3-------3---3-------3-|
G|-4-------2-------2-----2---2-----2-------2-|-----------0---2-------2-------|
D|---4---0-------------2-------2-0-----------|-------------0-----------------|
A|-----2-------------0-----------------------|---2-----------------------2---|
E|-------------------------------------------|-3-----------------------3-----|
                                                Chorus 2nd ending
e|3-----------2-----------3------|--------------|-------2------------------0|
B|--3-------3---3-------3---3----|-Play verse &-|-----3---3---------2------0|
G|----0---2-------2-----------0--|-Chorus-------|---2-------2-----2---2----0|
D|------0------------------------|(dont play----|-0-------------2-------2--2|
A|--------------------2----------|the D,A,D part|-------------0------------2|
E|------------------3------------|)-------------|--------------------------0|
 Bridge                                 Outro
e|-0--2--2--3--3--0--0--0--0-|----------|-------2-----------------------2-----|
B|-0--3--3--3--3--2--2--2--2-|-Play 1st-|-----3---3---------2---------3---3---|
G|-0--2--4--0--0--2--2--2--2-|--chorus--|---2-------2-----2---2-----2-------2-|
D|-2--0--4--0--0--2--2--2--2-|----------|-0-------------2-------2-0-----------|
A|-2-----2--2--2--0--0--0--0-|----------|-------------0-----------------------|
E|-0--------3--3-------------|----------|-------------------------------------|

e|-3-|
B|-3-|
G|-0-|
D|-0-|
A|-2-|
E|-3-|

| /  slide up
| \  slide down
| h  hammer-on
| p  pull-off
| ~  vibrato
| +  harmonic
| x  Mute note
=============================================================================
Related for When The Rain Falls tab