Song name
# A B C D E F G H I J K L M N O P Q R S T U V W X Y Z

Zeus - Carousel tab

NOTE!!: This tab contains all the parts of the song that are played, they may not 
be in order and are NOT SHOWN as the FULL song, these are just the riffs, you can 
fit them into the song if you know it well!

*//INTRO RIFF//*
  E          E  E  E  E  E  E  E     E  E  E  E  E  E  Q      
----------------------------------|--------------------------|
----------------------------------|--------------------------|
-------------------7--------------|--------------------------|
--9----------9--9-----7--7--9--5--|--5--7--------5-----------|
----------------------------------|--------7--7-----5--5~----|
----------------------------------|--------------------------|

*//AFTER INTRO MELODY//*
  W                   E           E   E  E   E   E  E   E   
|---------------------------------------|
|---------------------------------------|
|---------------------------------------|
|---------------------------------------|
|---------------------------------------|
|--0----------12--12--0--12--12--0--12--|

   E  E   E  E   E   E   E   E     W                 
--------------------------------|
--------------------------------|
--------------------------------|
--------------------------------|
----------------10--------------|
--12--0--12--0------10--12--12--|

*//MAIN RIFF//*              
     W                   E         Q    E  Q    E  E   
E||-------------------|-------------------------------|
B||-------------------|-------------------------------|
G||-------------------|------------7------------------|
D||-------------------|------------7-------3-------5--|
A||-------------------|------------5-------3-------5--|
D||-------------------|--0--------------0--3----0--5--|


  E  E  Q    E  E  E   E     W                 
--------------------------|-------------------|
--------------------------|-------------------|
--------------------------|-------------------|
--L--L--6----7--8--9--10--|-------------------|
--L--L--6----7--8--9--10--|-------------------|
--L--L--6----7--8--9--10--|-------------------|




*//VERSE RIFF//*
  W                   E           E   E  E   E   E  E   E   
|---------------------------------------|
|---------------------------------------|
|---------------------------------------|
|---------------------------------------|
|---------------------------------------|
|--0----------12--12--0--12--12--0--12--|


   E  E   E  E   E   E   E   E     W                 
--------------------------------|
--------------------------------|
--------------------------------|
--------------------------------|
----------------10--------------|
--12--0--12--0------10--12--12--|


*//BETWEEN RIFF//*
     E  E  E  E  E  E  E  E    E   E   E   E  E   E   E   E   
|----------------------------|--------------------------------|
|----------------------------|--------------------------------|
|----------------------------|--------------------------------|
|----------------------------|----------------------------10--|
|----3-----3--------5-----6--|--8------8----------10--12------|
|-------5-----5--6-----8-----|-----10-----10--12--------------|

*//PRE-SOLO RIFF//*
   E   E   E   E   E   E   E   E   
|----------------------------------|
|----------------------------------|
|----------------------------------|
|--12--12--12--12--12--12--12--12--|
|--12--12--12--12--12--12--12--12--|
|--12--12--12--12--12--12--12--12--|


  E   E   E   E   E   E   E   E      E   E   E   E   E   E   E   E   
---------------------------------|----------------------------------|
---------------------------------|----------------------------------|
---------------------------------|----------------------------------|
-----11--11--11--11--11--11--11--|--10--10--10--10--10--10--10--10--|
-----11--11--11--11--11--11--11--|--10--10--10--10--10--10--10--10--|
-----11--11--11--11--11--11--11--|--10--10--10--10--10--10--10--10--|


  E  E  E  E  E  E  E     E      W                 
------------------------------|-------------------|
------------------------------|-------------------|
------------------------------|-------------------|
-----9--9--8--9--8--9s--(12)--|-------------------|
-----9--9--8--9--8--9s--(12)--|-------------------|
-----9--9--8--9--8--9s--(12)--|-------------------|


*//SOLO RIFF//* [Solo can be played in D]
  Q         Q    E  E  E   E     E  Q    Q    E   Q       W                 
------------------------------|------------------------|-------------------|
------------------------------|------------------------|-------------------|
--------------------------10--|--L--9------------12----|-------------------|
--------------------------10--|--L--9----8----7--12----|-------------------|
-----------------3--5------8--|--L--7----8----7--10----|-------------------|
--0---------0----------0------|----------8----7--------|-------------------|


*//FINAL RIFF//*
  E         Q    E  Q    E  E     E  E  Q    E  E  E  E    
-------------------------------|-------------------------||
-------------------------------|-------------------------||
------------7------------------|-------------------------||
------------7-------3-------5--|--L--L--6----0--0--0-----||
------------5-------3-------5--|--L--L--6----0--0--0-----||
--0--------------0--3----0--5--|--L--L--6----0--0--0-----||




Duration Legend
---------------
W - whole
H - half
Q - quarter
E - 8th
S - 16th
T - 32nd
X - 64th
. - note dotted
|-n-|  - n-tuplets


Tablature Legend
----------------
L - tied note
x - dead note
g - grace note
(n) - ghost note
> - accentuded note
NH - natural harmonic
AH - artificial harmonic
TH - tapped harmonic
SH - semi harmonic
PH - pitch harmonic
h - hammer on
p - pull off
b - bend
br - bendRelease
pb - preBend
pbr - preBendRelease
brb - bendReleaseBend
\n/ - tremolo bar dip
\n - tremolo bar dive
-/n - tremolo bar Release up
/n\ - tremolo bar inverted dip
/n - tremolo bar return
-\n - tremolo bar Release down
S - shift slide
s - legato slide
/ -  slide into from below or out of upwards
\ -  slide into from above or out of downwards
~ - vibrato
W - wide vibrato
tr - trill
TP - tremolo picking
T - tapping
S - slap
P - pop
< - fade in
^ - brush up
v - brush down
Tap to rate this tab
 
# A B C D E F G H I J K L M N O P Q R S T U V W X Y Z