Song name
# A B C D E F G H I J K L M N O P Q R S T U V W X Y Z

Zico Chain - No Hoper Boy tab

Main Riff
D|------------------------|
A|------------------------|
F|----------------0-2h3p0-|
C|-2--4-(0)-2--4----------|
G|------------------------|
C|------------------------|

(I can see you)
D|-------------------------------------------------------------------------------------------------|
A|-------------------------------------------------------------------------------------------------|
F|------------------------------------------------1111111111111111111111111111111111111111111111111|
C|-4-4-4-4-4-4-4-4-4-4-4-4-4-4-4-4-4-4-4-4-4-4-4-4-------------------------------------------------|
G|-4-4-4-4-4-4-4-4-4-4-4-4-4-4-4-4-4-4-4-4-4-4-4-4-9-9-9-9-9-9-9-9-9-9-9-9-9-9-9-9-9-9-9-9-9-9-9-9-|
C|-4-4-4-4-4-4-4-4-4-4-4-4-4-4-4-4-4-4-4-4-4-4-4-4-------------------------------------------------|

Bridge
D|----------------------------------------------------|
A|----------------------------------------------------|
F|-7--7--4--4-10-10109-9-9-97--7--4--4-10-10109-9-9-9-|
C|-5--5--2--2--8--8-87-7-7-75--5--2--2--8--8-87-7-7-7-|
G|-5--5--2--2--8--8-87-7-7-75--5--2--2--8--8-87-7-7-7-|
C|-5--5--2--2--8--8-87-7-7-75--5--2--2--8--8-87-7-7-7-|

Chorus
D|---------------------------------------------------------------------|
A|-----------10----------3------------------------3--------------------|
F|--------------11-----4---4--------------------4---4------------------|
C|-5--5-55-9-------9-2------5-8-8877775-55-5552------2-8-8-8-8-7-77-75-|
G|-5--5-55-9---------2--------8-8877775-55-5552--------8-8-8-8-7-77-75-|
C|-5--5-55-9---------2--------8-8877775-55-5552--------8-8-8-8-7-77-75-|

And that's all the parts to this song. Very simple (with that little flick in the main 
some beginners might find tricky at first) but apart from that very simple. ::feekback etc::
Tap to rate this tab
# A B C D E F G H I J K L M N O P Q R S T U V W X Y Z