Song name
# A B C D E F G H I J K L M N O P Q R S T U V W X Y Z

Zico Chain - Lonely Ones tab

                          Zico Chain
                        The Lonely Ones

Tuning: Drop D
/\- slide up and down


bass intro/verse
-------|
-------|
-------|
-------|
-------|
-0-0-0-|x8

next verse
-----------|
-----------|
-----------|
-/6-2-/5-0-|
-/6-2-/5-0-|
-/6-2-/5-0-|


-----------------------------|
-----------------------------| !!God your full of shit!!!
-----------------------------|
-----------------------------|
-----------------------------|
-3/8-8-8-8\3-3-3-3-3-3-3-3-3-|

chorus
-----------------------------|-------------|
-----------------------------|-------------|
-----------------------------|-------------|
-5-5-5-6-7-7-3-3-3-3-3-3-3-3-|-5-5-5-6-6-3-|
-5-5-5-6-7-7-3-3-3-3-3-3-3-3-|-5-5-5-6-6-3-|
-5-5-5-6-7-7-3-3-3-3-3-3-3-3-|-5-5-5-6-6-3-|


outro
------------------------------|
------------------------------|
------------------------------|
-/8-8-8-8-8-0-0-0-0-0-0-0-0-0-|
-/8-8-8-8-8-0-0-0-0-0-0-0-0-0-|
-/8-8-8-8-8-0-0-0-0-0-0-0-0-0-|

no solo yet but it'll be finished soon, this tab is not perfect but i cant find it 
so i tabbed it, feel free to correct it.
Tap to rate this tab
 
# A B C D E F G H I J K L M N O P Q R S T U V W X Y Z