Guitaretab - guitar tabs
Song name
# A B C D E F G H I J K L M N O P Q R S T U V W X Y Z

Ziggens - Debutante tab

Debutante (Intro)  The Ziggens

Tabbed by Flaming J
Cheesezombie9000@yahoo.com

/ - Slide Up

Tuning: e A D G B E

e|--------------|
B|--------------|
G|8-5-5-5-5----|
D|6-3-3-3-3----|
A|6-3-3-3-3-12/|
E|-----------11/|
[ Tab from: http://www.guitaretab.com/z/ziggens/87164.html ]
e|-----------------------------------------------------------|
B|-----------------------------------------------------------|
G|-----------------------------------------------------------|
D|-----------1-2-------2-1------2-2-2-2-2--------------------|
A|--------2------4-2-2-----4-2------------5-4-22-2-2-2-0----|
E|0-0-4-5-------------------------------------------------4-2|

e|---------------|
B|---------------|
G|---------------|
D|---------------|
A|2-4-2-4-2-4-12/|
E|------------11/|

e|-----------------------------------------------------------|
B|-----------------------------------------------------------|
G|-----------------------------------------------------------|
D|-----------1-2-------2-1------2-2-2-2-2--------------------|
A|--------2------4-2-2-----4-2------------5-4-22-2-2-2-0----|
E|0-0-4-5-------------------------------------------------4-2|
Related for Debutante tab