Song name
# A B C D E F G H I J K L M N O P Q R S T U V W X Y Z

Ziggens - 61 9 tab

Help us improve GuitareTab! Take a short survey!
The Ziggens - 61.9
By Neil R. Rose
neil.damage.done@gmail.com


RIFF 1
e||----------------------------5--5h7--5h7--5--|
B||--0--5----5h7--5h7--5----5------------------|
G||--------------------------------------------|  X2
D||--------------------------------------------|
A||--------------------------------------------|
E||--------------------------------------------|

RIFF 2
e||--7--5--3--2---------------|
B||--------------2h3--2h3--5--|
G||---------------------------|  X2
D||---------------------------|
A||---------------------------|
E||---------------------------|

BRIDGE
     A    G    F   E
e||--5----3----1---------------------------------------------|
B||--5----3----1---------55-33-11-00---(61 - 9... 61-9!)-----|
G||--6----4----2----1-------------------------------------1--|  X2
D||--7----5----3----2-------------------------------------2--|
A||--7----5----3----2-------------------------------------2--|
E||--5----3----1----0-------------------------------------0--|

RIFF 1
RIFF 2
RIFF 1
RIFF 2
BRIDGE
RIFF 1
RIFF 2
BRIDGE
RIFF 1
RIFF 2

THE ZIGGENS LIVE ON!!!
Related for 61 9 tab