Song name
# A B C D E F G H I J K L M N O P Q R S T U V W X Y Z

Ziggy Marley - Beach In Hawaii tab

-------------------------------------------------------------------------------
			     beach in hawaiii - ziggy marley
-------------------------------------------------------------------------------
Tabbed by: Tom Broerse
Email: tommrb@hotmail.co.uk

Tuning: standard

You'll probably need to use the track to get the rythm right.

e|---------------------------------------------------------------------------|
B|-13-13-13---10-12-/15-15-13-12------13-15-15brb---pb15-13-15----13-13h15---|
G|--------------------------------/14--------------------------14------------|
D|---------------------------------------------------------------------------|
A|---------------------------------------------------------------------------|
E|---------------------------------------------------------------------------|

e|-15b-15b-15b 15b--pb15-15-15-----------------------------------------------|
B|-----------------------------17-15-17-15-13-15b-15-13----13-13h15----------|
G|------------------------------------------------------14-------------------|
D|---------------------------------------------------------------------------|
A|---------------------------------------------------------------------------|
E|---------------------------------------------------------------------------|

e|-12------------17-------------------15----15h17p15h17p15h17p15h17p15-------|
B|-15b-15-13-15b----15b-13-15---15/17----17----------------------------------|
G|----------------------------14---------------------------------------------|
D|---------------------------------------------------------------------------|
A|---------------------------------------------------------------------------|
E|---------------------------------------------------------------------------|

about here vocals come in again, but the solo kinda continues:

e|-20-19-17------------------------------------------------------------------|
B|----------18-20---20-18-17----17-18-20---18-17----15-15-13---14-17-16------|
G|---------------------------19-----------------------------------------15/17|
D|---------------------------------------------------------------------------|
A|---------------------------------------------------------------------------|
E|---------------------------------------------------------------------------|

e|--------------------------------17-17-15-13-12h13p12-----------------------|
B|-15h17p15----15-(17)-18-17-17------------------------13~-------------------|
G|----------17---------------------------------------------------------------|
D|---------------------------------------------------------------------------|
A|---------------------------------------------------------------------------|
E|---------------------------------------------------------------------------|

this is the point when it really fades out, but you can just hear these licks:

e|---------------------------------------------------------------------------|
B|-13-13-13p12-12------12p10-10----10-------17-15-13-12h13p12----------------|
G|------------------------------12----------------------------13-13-12h13p12-|
D|---------------------------------------------------------------------------|
A|---------------------------------------------------------------------------|
E|---------------------------------------------------------------------------|




************************************

| /   slide up
| \   slide down
| h   hammer-on
| p   pull-off
| ~   vibrato
| +   harmonic
| x   Mute note
| b   Bend
| pb  Pre-bend
| br  Bend release
| pbr Pre-bend release
| brb Bend release bend
Tap to rate this tab
# A B C D E F G H I J K L M N O P Q R S T U V W X Y Z