Song name
# A B C D E F G H I J K L M N O P Q R S T U V W X Y Z

Ziggy Marley - Beach In Hawaii tab

[Verse]

Guitar 1:

    Am          G          F         Am
e----------|----------|----------|----------| Repeat throughout entire song
B-5-5-5-5--|-3-3-3-3--|-1-1-1-1--|-5-5-5-5--|
G-5-5-5-5--|-4-4-4-4--|-2-2-2-2--|-5-5-5-5--|
D-7-7-7-7--|-5-5-5-5--|-3-3-3-3--|-7-7-7-7--|
A----------|----------|----------|----------|
E----------|----------|----------|----------|


Guitar 2:

Repeat:
      4x         4x        4x         4x
e---12--12-|---10--10-|---8---8--|---8---8--| 
B-10--10---|-10--10---|-10--10---|-10--10---| 
G----------|----------|----------|----------|
D----------|----------|----------|----------|
A----------|----------|----------|----------|
E----------|----------|----------|----------|



e-------------|-------------|-------------|-------------| 
B-------------|-------------|-------------|-------------| 
G-------------|-------------|-------------|-------------|
D-7-----7-----|-------7-----|-------------|-----------7-|
A---7-10-7-10-|--7-10--7-8--|--8-8-10-8-7-|--7-10-7-10--|
E-------------|-------------|-------------|-------------|

e-------------|-------------|-------------|-------------|
B-------------|-------------|-------------|-------------| 
G-------------|-------------|-------------|-------------|
D------7------|-------7-----|-------------|-----------7-|
A--7-10-7-10--|--7-10--7-8--|--8-8-10-8-7-|--7-10-7-10--|
E-------------|-------------|-------------|-------------|

e-------------|-------------|-------------|-------------|
B-------------|-------------|-------------|-------------| 
G-------------|-------------|-------------|-------------|
D------7------|-------7-----|-------------|-----------7-|
A--7-10-7-10--|--7-10--7-8--|--8-8-10-8-7-|--7-10-7-10--|
E-------------|-------------|-------------|-------------|



Repeat:
      4x         4x        4x         4x
e---12--12-|---10--10-|---8---8--|---8---8--| 
B-10--10---|-10--10---|-10--10---|-10--10---| 
G----------|----------|----------|----------|
D----------|----------|----------|----------|
A----------|----------|----------|----------|
E----------|----------|----------|----------|



e-------------|-------------|-------------|-------------| 
B-------------|-------------|-------------|-------------| 
G---14-12-14--|-16-14-12-14-|-16-14-12-14-|---14-12-14--|
D-------------|-------------|-------------|-------------|
A-------------|-------------|-------------|-------------|
E-------------|-------------|-------------|-------------|

e-------------|-------------|-------------|-------------| 
B-------------|-------------|-------------|-------------| 
G-16-14-12-14-|---14-12-14--|-16-14-12-14-|-16-14-12-14-|
D-------------|-------------|-------------|-------------|
A-------------|-------------|-------------|-------------|
E-------------|-------------|-------------|-------------|

e-------------|-------------|-------------|-------------| 
B-------------|-------------|-------------|-------------| 
G-16-14-12-14-|---14-12-14--|-16-14-12-14-|-16-14-12-14-|
D-------------|-------------|-------------|-------------|
A-------------|-------------|-------------|-------------|
E-------------|-------------|-------------|-------------|
Tap to rate this tab
# A B C D E F G H I J K L M N O P Q R S T U V W X Y Z