Song name
# A B C D E F G H I J K L M N O P Q R S T U V W X Y Z

Zinkplaat - Piekniek Op Die Maan tab

Help us improve GuitareTab! Take a short survey!
-----------------------------------------------------------------------------------
			Piekniek Op Die Maan - Zinkplaat
					Josh
-----------------------------------------------------------------------------------
Song Name:	Piekniek op die maan
Band:		Zinkplaat
Tabbed by:	Josh

Tuning: Standard (EADGBe)

Intro (Acoustic Guitar 1)
|-4-5-2-2-2p0-0-7-7-5-4-4h5--4-5-2-2-2p0-7-7-9-9-9p7-7-|
|------------------------------------------------------|
|------------------------------------------------------|
|------------------------------------------------------|
|------------------------------------------------------|
|------------------------------------------------------|

|-2p0-4p0-2p0-4p0-2p0-7-7p0-5-4-4h5p5p0--2p0-4p0-2p0-4p0-2p0-7-7p0-12-|
|---------------------------------------------------------------------|
|---------------------------------------------------------------------|
|---------------------------------------------------------------------|
|---------------------------------------------------------------------|
|---------------------------------------------------------------------|

(Acoustic Guitar 2)
|-0----0----0----0-|
|-0----0----0----0-|
|-1----0----1----0-|
|-2----7----2----7-|
|-2----7----2----7-|
|-0----5----0----5-|

And that's about it...
I know it seems so short but that's the whole song
Just this over and over. :|
There is also another guitar that does a lot of hammering and pulling but I couldn't
figure that out.
Email me at josuanel@gmail.com
Related for Piekniek Op Die Maan tab