Zion I - Bay tab

Once you get it down, go ahead and add in a slap to the strings where you feel it 
should.I have no idea if this is correct or not, I just know it sounds better than the other 
tab thats up. Any questions heres my email: tdhogue@hotmail.com

G]--------------------------|
D]--------------------------|
A]-----7-----------8---8----|
E]--5-----0-5-0-6----6---6-5|


or


G]--------------------------|
D]--------------------------|
A]-----7-----------8--------|
E]--5-----0-5-0-6----0-6-0-5|


By the way I figured this out on my standard tuned 6 string guitar.
Tap to rate this tab
 
# A B C D E F G H I J K L M N O P Q R S T U V W X Y Z