Song name
# A B C D E F G H I J K L M N O P Q R S T U V W X Y Z

Zipso - Teina Ma Tama tab

*[Note]For the rhytm: Must be played with Cappo on the 2nd fret
(for the players w/o cappo just bring one pencil and a smooth rope and put it on the 2nd fret ..)

[Chords(with Cappo on the 2nd fret)]
(note: x -means dead string)

   D  F#m  Bm  A
e|-2---2---0---0--|
B|-3---2---0---2--|
G|-2---2---2---2--|
D|-0---4---0---2--|
A|-x---4---2---0--|
E|-x---2---x---x--|


[Lead Guitar(with out te cappo on the 2nd fret)]
(note: / -means slide ,.e.g. "--7/9--", must slide from 7th to 9th fret)
 
  D              F#m                  Bm                   A
e|-------------|---------------------|-----------------------|
B|---5--7--7/9-|-4---7/9-5--5/7--7/9-|---7/9--5--5/7--7/9--4-|
G|--4----------|---------------------|-6---------------------|
D|-------------|---------------------|-----------------------|
A|-------------|---------------------|-----------------------|
E|-------------|---------------------|-----------------------|


*The chords and the lead section of the song is the same until the end of the song*
Tap to rate this tab
# A B C D E F G H I J K L M N O P Q R S T U V W X Y Z