Song name
# A B C D E F G H I J K L M N O P Q R S T U V W X Y Z

Zob - Radio Punk tab

Song: Radio Punk
Artist: ZOB
Album: Telenovelas
Year: 1998
Genre: Punk
Tabbed by: Catalin Gherman (jesusofsuburbia88@gmail.com)

Zob is probably the most famous Romanian Punk band... 

Standard Tuning: E A D G B E

INTRO

Distortion Guitar: 

e|--------------------------------|----------------------------5-7-|
B|----------------6-5---5-6-5---6-|----------------6-5---5-6-8-----|
G|5-5-5-5-7-7-7-7-----7-------7---|5-5-5-5-7-7-7-7-----7-----------|
D|--------------------------------|--------------------------------|
A|--------------------------------|--------------------------------|
E|--------------------------------|--------------------------------|



e|--------------------------------|----------------------------5-7-8-|
B|----------------6-5---5-6-5---6-|----------------6-5---5-6-8-------|
G|5-5-5-5-7-7-7-7-----7-------7---|5-5-5-5-7-7-7-7-----7-------------|
D|--------------------------------|----------------------------------|
A|--------------------------------|----------------------------------|
E|--------------------------------|----------------------------------|

LYRICS AND CHORUS:

Distortion Guitar

Chords: C5, G5, A5, F5 (Power Chords)

     C5       G5        A5     F5
e|----------------------------------|
B|----------------------------------|
G|----------------------------------|
D|-10101010-5-5-5-5-7-7-7-7-3-3-3-3-|
A|-10101010-5-5-5-5-7-7-7-7-3-3-3-3-|
E|-8-8-8-8--3-3-3-3-5-5-5-5-1-1-1-1-|

Bass: F, E, F, G,

G|--------------------------------|
D|--------------------------------|
A|--------------------------------|
E|1-1-1-1-0-0-0-0-1-1-1-1-3-3-3-3-|
Tap to rate this tab
# A B C D E F G H I J K L M N O P Q R S T U V W X Y Z