Song name
# A B C D E F G H I J K L M N O P Q R S T U V W X Y Z

Zoe - Nada tab

Tabbed by: MarianoG RosalesH / swindler01 / swindler010

Aqui la tablatura de la cancion 'Nada' de Zoe del nuevo disco Reptilectric.
Es la primer tablatura que he sacado asi que quiza suene un poco diferente, pero 
asi es como se oye.
Disfrutenla.

INTRO
----------------------------------------|
----------------------------------------|
----------------------------------------|
----------------------------------------|
----55-555-555-555-5--------------------|
--------------------33-333-333-333-3----| (x2)

VERSO 1
------------------------------------------------------------------------|
------------------------------------------------------------------------|
------------------------------------------------------------------------|
------------------------------------------------------------------------|
----55-555-555-555-5----------------33-333-333-333-3--------------------|
--------------------33-333-333-333-3----------------55-555-555-555-5----| (x2)

SOLO
----------------------------------------|
----------------------------------------|
----------------------------------------|
--------------------------3-------------|
----5s7-5----5-7-5-7-5------3----3-0----|
----------------------------------3-----|

VERSO 2a
------------------------------------------------------------------------|
------------------------------------------------------------------------|
------------------------------------------------------------------------|
------------------------------------------------------------------------|
----55-555-555-555-5----------------33-333-333-333-3--------------------|
--------------------33-333-333-333-3----------------55-555-555-555-5----|


VERSO 2b
-------------------------------------------|
-------------------------------------------|
-------------------------------------------|
-------------------------------------------|
-------------------1-----------------------|
----3-33--1-11--0-------3-33--1-11-0-------|

ARPEGIO
-----------------------------------------------------------     -------|
-----------------------------------------------------------     -------|
------7---7---7---7----------------------5---5---6---6-----     --7----|
-----7-7-7-7-7-7-7-7---5---5---5---5----5-5-5-5-6-6-6-6----     --7----|
----5---5---5---5-----5-5-5-5-5-5-5-5--3---3---4---4-------     --5----|
---------------------3---3---3---3------------------------- (x2) ------|


VERSO 3a
------------------------------------------------------------------------|
------------------------------------------------------------------------|
------------------------------------------------------------------------|
------------------------------------------------------------------------|
----55-555-555-555-5----------------33-333-333-333-3--------------------|
--------------------33-333-333-333-3----------------55-555-555-555-5----| (x2)

VERSO 3b
-------------------------------------------|
-------------------------------------------|
-------------------------------------------|
-------------------------------------------|
-------------------1-----------------------|
----3-33--1-11--0-------3-33--1-11-0-------|

Coro 2:40
-------------5------------6-----------------------------|
---66-5-6-5-6---66-5-6-5-6---66-5-6-5-3---66-5-6-5-3----|
--------------------------------------------------------|
--------------------------------------------------------|
--------------------------------------------------------|
--------------------------------------------------------| (x2)

SOLO
---------------------------------|
---------------------------------|
----7s9-7--5s7--7-9-7--5-7--7----|
---------------------------------|
---------------------------------|
---------------------------------| (x4)


FINAL Guitarra1
---------------------------------|
----6--------5--------6----------|
----7--------5--------7----------|
----5-(x8)---3-(x8)---7-(x16)----|
---------------------------------|
---------------------------------| (x17)


FINAL Guitarra2
---------------------------------|
---------------------------------|
---------------------------------|
---------------------------------|
---------------------------------|
----3-(x8)---0-(x8)---5-(x16)----| (x17)
Tap to rate this tab
 
# A B C D E F G H I J K L M N O P Q R S T U V W X Y Z