Guitaretab - guitar tabs
Song name
# A B C D E F G H I J K L M N O P Q R S T U V W X Y Z
Home / Z / Zoe / Te Sone chords

Zoe - Te Sone chords

Highlighted       Show chord diagrams
INTRO:

E---2/14~----

G-----------------------------------------------------------------------|
D---------7-------------------------------------------------------------|
A-9-9-7-9---9-9-9-7-9--------------5------------------------3-----------|
E------------------------5-7-7-5-7---7-7-7-5-7----3-5-5-3-5---5-5-5-3-5-|

G----------------------------------------------|
D----------------------------------------------|
A-5--5-5-5--5-5-0h5--5-5-5-5-------------------|
E----------------------------------------------|

F#m-Bm-A-D

F#m                        Bm                            A D
Buelvo el tiempo a aquel momento en que mi mundo se paraba,entre tus labios..
F#m                   Bm                     A          D
Solo para revivir y derretirme una vez mas mirando tus ojos negros..
F#m                Bm                       A
Tengo ganas de ser aire y me respires para siempre,ehhe
D                                 F#m
pues no tengo nada que perder..,

[ Tab from: http://www.guitaretab.com/z/zoe/191820.html ]
D                      F#m
Todo el tiempo estoy pensando en ti
  A                     Bm
en el brillo del sol ,en un rincon del cielo...
 D                       F#m               A
Todo el tiempo estoy pensando en ti en el eco del mar
      Bm                            D
que retumba en tus ojos de miel


F#m-Bm-A-D + el riff del bajo


F#m             Bm                  A
Solo para revivir y derretirme una vez mas
  D
mirando tus ojos negros...

F#m                 Bm                      A
Tengo ganas de ser aire y me respires para siempre,ehee
 D                               F#m
pues no tengo nada que perder..

  D                      F#m
Todo el tiempo estoy pensando en ti ,
  A
en el brillo del sol
    Bm
y las miradas tuyas de miel...

  D                  F#m
Si te soņeeehh ,si te soņeheee
A          Bm
uuuuna vez maaasss.....

 D                  F#m
Si te soņeeehh ,si te soņeheee
A          Bm
uuuuna vez maaasss.....
Related for Te Sone chords
Advertisement will be closed in 10 seconds