Song name
# A B C D E F G H I J K L M N O P Q R S T U V W X Y Z

Zoe - Asteroide tab

Zoe
Asteroide
Afinacion Estandar

E||--------------------------------------|
B||--------------------------------------|
G||--------------------------------------|
D||--5----4----3-------------------------|  	 "INTRO"
A||--5----4----3-------------------------|       2 veces
E||--3----2----1-------------------------|


E||--------------------------------------|
B||--------------------------------------|
G||--------------------------------------|    "4 veces" seguido del intro
D||--9-9-8-8-7-0-3-5---------------------|   va en acompaņamiento del intro
A||--------------------------------------|
E||--------------------------------------|


E||--------------------------------------|  Esta parte va con "Palm Muting"
B||--------------------------------------|           "4 veces"   
G||--------------------------------------|        
D||--5----4----3-------------------------|  	
A||--5----4----3-------------------------|       
E||--3----2----1-------------------------|



E||--------------------------------------|
B||--------------------------------------|        "Coro"
G||------7-------------------------------| "2 veces" y luego se 
D||--8---7---6---5-----------------------|         repite desde el intro
A||--8---5---6---5-----------------------|
E||--6-------4---3-----------------------|

        
E||--------------------------------------|
B||--------------------------------------|  Esta parte es el cambio
G||--------------------------------------|      que hacen en el minuto 2:19 
D||---3----6-----------------------------|
A||---3----6-----------------------------|
E||---1----4-----------------------------|


Esa es toda la rola, solamente tienen que escuchar la rola para
que identifiquen que parte es cada cosa, cualquier duda, comentario
o correccion son bienvenidas...
Mi E-mail es groobe@gmail.com
Sax
Tap to rate this tab
 
# A B C D E F G H I J K L M N O P Q R S T U V W X Y Z