Song name
# A B C D E F G H I J K L M N O P Q R S T U V W X Y Z

Zoe - Via Lactea tab

Help us improve GuitareTab! Take a short survey!
bien pues esta este es el solo de via lactea esta facil

 y usamos efecto de reverb y corus

tocando la cuerda fuerte para darle un efecto mas armonico

-----7777-8-7-5-777-7777-8-7-5-777-7777-8-7-5-777-7/2-3--3-333--|
----------------------------------------------------------------|x3
----------------------------------------------------------------|
----------------------------------------------------------------|
----------------------------------------------------------------|
----------------------------------------------------------------|

y asi se va hasta el final y el que esta un poco antes de este va asi

---------------------------------|
--------------5-3-0---5-3-0------|
--------------------2---------4--|
---------------------------4/0---|
---------------------------------|
---------------------------------|

y ya es todo ya si alguien tiene dua o algo me escriben
 y pues si tienen el demas acorde bien pues rolelo noo?

metamerol@htmail.com
Related for Via Lactea tab