Song name
# A B C D E F G H I J K L M N O P Q R S T U V W X Y Z

Zolof The Rock And Roll Destroyer - How Bout It tab

Artist: Zolof The Rock And Roll Destroyer
Song: How bout it
Album: Jalopy Go Far

Tuned Down 1/2 Step
Intro Riff:
Eb|-----------------------------|
Bb|-----------------------------|
Gb|-----------------------------|
Db|-----------------------------|
Ab|------3-4-3--------6--4-3----|
Eb|-4--4--------2--2------------|

Other Riff
Eb|---|----|
Bb|---|----|
Gb|---|-11-|
Db|-6-|-11-|
Ab|-6-|-9--|
Eb|-4-|-9--|
Tap to rate this tab
 
# A B C D E F G H I J K L M N O P Q R S T U V W X Y Z