Guitaretab - guitar tabs
Song name
# A B C D E F G H I J K L M N O P Q R S T U V W X Y Z

Zolof The Rock And Roll Destroyer - Crazy Cute tab

Artist: Zolof The Rock And Roll Destoryer
Song: Crazy = Cute
Album: The Popcicle Ep

Main Riff:
|-------------------------------------------------------|
|-------------------------------------------------------|
|----------4-4-6--7-7-6-7--9-9-9------------------------|
|-7-7-6-7--4-4-6--7-7-6-7--9-9-9------------------------|
|-7-7-6-7-2-2-4--5-5-4-5--7-7-7------------------------|
|-5-5-4-5-----------------------------------------------|

|-------------------------------------------------------|
|-------------------------------------------------------|
|-------------------------------------------------------|
|-------------------------------------------------------|
|---------2-2-4-5-5-4-5-7-7-7--------------------------|
|-5-5-4-5-----------------------------------------------|

Pre Chorus: 
 You make me feel like I sound like Im crazy...
|-------------------------------------------------------|
|-------------------------------------------------------|
|------4---6--7----9---11--7-7-6----7---7-7------------|
|-7----4---6--7----9---11--7-7--6----7---7-7------------|
|-7----2---4--5----7---9---5-5--4----5---5-5------------|
|-5-----------------------------------------------------|
[ Tab from: http://www.guitaretab.com/z/zolof-the-rock-and-roll-destroyer/116149.html ]
|-------------------------------------------------------|
|-------------------------------------------------------|
|------7----9-------------------------------------------|
|-7----7----9-------------------------------------------|
|-7----5----7-4x----------------------------------------|
|-5-8x-5-4x---------------------------------------------|

Chorus:
 A5          A/D5     E5
Every time I see you near me
  A5                  A/D5  E5
I feel ashamed I feel shy
  A5         A/D5      E5
Every time I see you nearby
   A5              A/D5   E5
I wanna scream and hide

Solo:
E|----17-14------------19-14-----------21-14--------------------------------|
B|----------15-14v-----------15-14v-----------15-14v------------------------|
G|--------------------------------------------------------------------------|


however many times it is
E|-t19-12p9-9h12--t17-12p9-9h12-t19------------------------------------|
B|---------------------------------------------------------------------|
G|---------------------------------------------------------------------|


slide down and tap every string and then slide up while tapping every string
E|-19s21-21^----------------------------------------------|
B|--------------------------------------------------------|
G|--------------------------------------------------------|
Related for Crazy Cute tab