Song name
# A B C D E F G H I J K L M N O P Q R S T U V W X Y Z

Zolof The Rock And Roll Destroyer - I Owe You tab

Intro (x4)
e|---------------------------------------|
b|---------------------------------------|
g|---------------------------------------|
d|---------------------------------------|
a|---------------------------------------|
E|---7-7-7-6-7-9-7-6-4-4-4-4-2-2-2-2-----|

"doo doo doo doodoo nananana na na"
"doo doo doo doodoo nananana na na"
e|--------------------------------------|
b|--------------------------------------|
g|--------------------------------------|
d|---9-9-9-9-9-9-9-9-6-6-6-6-4-4-4-4----|
a|---9-9-9-9-9-9-9-9-6-6-6-6-4-4-4-4----|
E|---7-7-7-7-7-7-7-7-4-4-4-4-2-2-2-2----|

"It's not gonna be ok, but it's ok  (yeah, it's ok)"
"It's not gonna be alright, but it's alright  (yeah, it's alright)"
e|--------------------------------------|
b|--------------------------------------|
g|--------------------------------------|
d|---9-9-9-9-9-9-9-9-6-6-6-6-4-4-4-4----|
a|---9-9-9-9-9-9-9-9-6-6-6-6-4-4-4-4----|
E|---7-7-7-7-7-7-7-7-4-4-4-4-2-2-2-2----|
        *  *   *  *  *  *  *   *   *  *  *  *   *  *  *   *

"When in question, run away. i owe you
something for your birthday, i owe you" (don't play the end the 2nd time)
e|----------------------|------------------------------------|
b|----------------------|------------------------------------|
g|----------------------|------------------------------------|
d|---2--2-2-2-4--4-4-4-|-9-9-9-9-8-8-8-8-6-6-6-6-2-2-2-2-----|
a|---2--2-2-2-4--4-4-4-|-9-9-9-9-8-8-8-8-6-6-6-6-2-2-2-2-----|
E|---0--0-0-0-2--2-2-2-|-7-7-7-7-6-6-6-6-4-4-4-4-2-2-2-2-----|

"doo doo doo doodoo nananana na na"
"doo doo doo doodoo nananana na na"
e|--------------------------------------|
b|--------------------------------------|
g|--------------------------------------|
d|---9-9-9-9-9-9-9-9-6-6-6-6-4-4-4-4----|
a|---9-9-9-9-9-9-9-9-6-6-6-6-4-4-4-4----|
E|---7-7-7-7-7-7-7-7-4-4-4-4-2-2-2-2----|

"I might shy and run away, but it's ok  (ok, yeah, it's ok)"
"It's not gonna be a blast, but it will pass  (will pass, yeah, it will pass)"
e|--------------------------------------|
b|--------------------------------------|
g|--------------------------------------|
d|---9-9-9-9-9-9-9-9-6-6-6-6-4-4-4-4----|
a|---9-9-9-9-9-9-9-9-6-6-6-6-4-4-4-4----|
E|---7-7-7-7-7-7-7-7-4-4-4-4-2-2-2-2----|
        *  *   *  *  *  *  *   *   *  *  *  *   *  *  *   *

"When in question, run away. i owe you
something for your birthday, i owe you" (don't play the end the 2nd time)
e|----------------------|------------------------------------|
b|----------------------|------------------------------------|
g|----------------------|------------------------------------|
d|---2--2-2-2-4--4-4-4-|-9-9-9-9-8-8-8-8-6-6-6-6-2-2-2-2-----|
a|---2--2-2-2-4--4-4-4-|-9-9-9-9-8-8-8-8-6-6-6-6-2-2-2-2-----|
E|---0--0-0-0-2--2-2-2-|-7-7-7-7-6-6-6-6-4-4-4-4-2-2-2-2-----|

"It's not gonna be ok, but it's OK (Alright)"
"It's not gonna be alright, but it's alright"
"Yeah, It's alright"
e|---------------------------------------|
b|---------------------------------------|
g|---------------------------------------|
d|---------------------------------------|
a|---------------------------------------|
E|---7-7-7-6-7-9-7-6-4-4-4-4-2-2-2-2-----|

"It's not gonna be alright"
("doo doo doo doodoo nananana na na")
"It's not gonna be ok"
("doo doo doo doodoo nananana na na")
"It's not gonna be alright"
("doo doo doo doodoo nananana na na")
"It's not gonna be ok"
("doo doo doo doodoo nananana na na")
"Pull the pin and throw the bomb" ('Slit my F-ing throat")
("doo doo doo doodoo nananana na na")
"Pull the pin and throw the bomb" ('Slit my F-ing throat")
("doo doo doo doodoo nananana na na")
"Pull the pin and throw the bomb" ('Slit my F-ing throat")
("doo doo doo doodoo nananana na na")
"Pull the pin and throw the bomb" ('Slit my F-ing throat")
("doo doo doo doodoo nananana na na")
e|--------------------------------------|
b|--------------------------------------|
g|--------------------------------------|
d|---9-9-9-9-9-9-9-9-6-6-6-6-4-4-4-4----|
a|---9-9-9-9-9-9-9-9-6-6-6-6-4-4-4-4----|
E|---7-7-7-7-7-7-7-7-4-4-4-4-2-2-2-2----|

"We were so good, Oh my god!"
Tap to rate this tab
# A B C D E F G H I J K L M N O P Q R S T U V W X Y Z